Gitaristu.ru
Аккорды Табулатура Начинающим Мастер-класс Софт Видео
Новости Анонсы Гитары Гитаристы Статьи Аватарки Минусовки
Поиск



Популярные подборы




Настройка гитары






Главная > Аккорды > A > Ac Dc

Аккорды
Ac Dc
-
Back in black-intro (табулатура)

Не нашли аккорды к песне? Посмотрите на


Подбор прислал: gitaristu.ru


e---------2-2-2-----------3p0-------------------|
B---------3-3-3---2-2-2------3p0----------------|
G--2------2-2-2---2-2-2---------2~~p0-----------|
D--2--------------2-2-2-------------------------|
A--1--------------0-0-0-------------------------|
E--0--------------------------------------------|

e---------2-2-2---------------------------------|
B---------3-3-3---2-2-2-------------------------|
G--2------2-2-2---2-2-2-------------------------|
D--2--------------2-2-2-------------------------|
A--1--------------0-0-0-----2---2---2---2-------|
E--0--------------------------4---5---6---7----|



 = slide down
p = pull-off
~ = tremolo

Другие подборы этого исполнителя

Расскажи друзьям!




Привет, гитарист!

Пройди супер-курс по гитаре и порази всех своей игрой!

Забрать курс!
ВАМ ПОДАРКИ ОТ ПРОЕКТА
"ГИТАРНАЯ РЕВОЛЮЦИЯ"