Gitaristu.ru
Аккорды Табулатура Начинающим Мастер-класс Софт Видео Форум Блог
Новости Анонсы Гитары Гитаристы Статьи Аватарки Минусовки
Поиск





Популярные подборы




Настройка гитары






Главная > Аккорды > A > Alan Jackson

Аккорды
Alan Jackson
-
Chattahoochee (бас)



Подбор прислал: gitaristu.ru



Date: Sun, 26 May 2002 11:50:11 +0300
From: =ISO-8859-1Qjan_bj=F6rklund= 
Subject: j/jackson_alan/chattahoochee.btab

Alan_Jackson_Chattahoochee

Basstab by Jan Bjorklund, Finland

You are welcome to request for basstabs 
Bienvenidos a pedirme transcripciones para el bajo 
Fingering and positions as suggested by TablEdit. 

TablEdited by Jan Bjorklund
Tuning : E A D G 	Time Signature: 4/4

 |       |       |       |        |       |       |       |        
|--------------------------------|--------------------------------|
|--------------------------------|--------------------------------|
|3-------------------------------|3-------------------------------|
|----------------3---------------|----------------3---------------|

 |       |       |       |        |       |       |       |        
|--------------------------------|--------------------------------|
|--------------------------------|--------------------------------|
|3---------------3---------------|----------------3-3-----0-------|
|----------------------------3---|3---------------------------3---|

 |       |       |       |        |       |       |       |           
|--------------------------------|--------------------------------|
|--------------------------------|--------------------------------|
|3-------------------------------|3-------------------------------|
|----------------3---------------|----------------3---------------|

 |       |       |       |        |       |       |       |     
|--------------------------------|--------------------------------|
|--------------------------------|--------------------------------|
|3---------------3---------------|--------0-------3---------------|
|----------------------------3---|3-------------------------------|

 |       |       |       |        |       |        
|--------------------------------|----------------|
|--------------------------------|----------------|
|----------------3---3-----------|0---0---2-------|
|3-----------------------3---3---|------------3---|

 |       |       |       |        |       |       |       |        
|----------------0---------------|----------------0---------------|
|--------------------------------|--------------------------------|
|3-------------------------------|3-------------------------------|
|--------------------------------|--------------------------------|

 |       |       |       |        |       |       |       |        
|--------------------------------|--------------------------------|
|--------------------------------|--------------------------------|
|3---------------3---------------|----------------3-------0-------|
|----------------------------3---|3---------------------------3---|

 |       |       |       |        |       |       |       |        
|----------------0---------------|----------------0---------------|
|--------------------------------|--------------------------------|
|3-------------------------------|3-------------------------------|
|--------------------------------|--------------------------------|

 |       |       |       |        |       |       |       |        
|--------------------------------|--------------------------------|
|--------------------------------|------------------------0---2---|
|3---------------3---------------|----------------3---3-----------|
|--------------------------------|3-------------------------------|

 |       |       |       |        |       |       |       |        
|--------------------------------|--------------------------------|
|3-------------------------------|3---------------3---------------|
|----------------3---------------|--------------------------------|
|--------------------------------|--------------------------------|

 |       |       |       |        |       |       |       |        
|--------------------------------|--------------------------------|
|--------------------------------|--------------------------------|
|3-------------------------------|--------0-------3-------0-------|
|----------------3-----------3---|3---------------------------3---|

 |       |       |       |        |       |       |       |        
|--------------------------------|--------------------------------|
|3-------------------------------|3---------------3---------------|
|----------------3---------------|--------------------------------|
|--------------------------------|------------------------3-------|

 |       |       |       |        |       |       |       |        
|--------------------------------|--------------------------------|
|0-------------------------------|----------------0---------------|
|----------------0---------------|--------------------------------|
|--------------------------------|3-------------------------------|

 |       |       |       |        |       |       |       |        
|0---0---------------------------|--------------------------------|
|--------------------------------|--------------------------------|
|----------------0-------2-------|3-------------------------------|
|--------3-------------------3---|----------------3---------------|

 |       |       |       |        |       |       |       |        
|--------------------------------|--------------------------------|
|--------------------------------|--------------------------------|
|3-------------------------------|3---------------3---------------|
|----------------3---------------|--------------------------------|

 |       |       |       |        |       |       |       |        
|--------------------------------|--------------------------------|
|--------------------------------|--------------------------------|
|----------------3-------0-------|3-------------------------------|
|3---------------------------3---|----------------3---------------|

 |       |       |       |        |       |       |       |        
|--------------------------------|--------------------------------|
|--------------------------------|--------------------------------|
|3-------------------------------|3---------------3-------0-------|
|----------------3---------------|----------------------------3---|

 |       |       |       |        |       |       |       |        
|--------------------------------|--------------------------------|
|--------------------------------|--------------------------------|
|--------0-------3-------0-------|3-------------------------------|
|3-----------3---------------3---|----------------3---------------|

 |       |       |       |        |       |       |       |        
|--------------------------------|--------------------------------|
|--------------------------------|--------------------------------|
|3-------------------------------|3---------------3---------------|
|----------------3---------------|----------------------------3---|

 |       |       |       |        |       |       |       |        
|--------------------------------|--------------------------------|
|--------------------------------|--------------------------------|
|----------------3---3---0-------|3-------------------------------|
|3---------------------------3---|----------------3---------------|

 |       |       |       |        |       |       |       |        
|--------------------------------|--------------------------------|
|--------------------------------|--------------------------------|
|3-------------------------------|3---------------3---------------|
|----------------3---------------|----------------------------3---|

 |       |       |       |        |       |       |       |        
|--------------------------------|--------------------------------|
|--------------------------------|--------------------------------|
|--------0-------3---------------|----------------3---3-----------|
|3-------------------------------|3-----------------------3---3---|

 |       |        |       |       |       |        
|----------------|----------------0---------------|
|----------------|--------------------------------|
|0---0---2-------|3-------------------------------|
|------------3---|--------------------------------|

 |       |       |       |        |       |       |       |        
|----------------0---------------|--------------------------------|
|--------------------------------|--------------------------------|
|3-------------------------------|3---------------3---------------|
|--------------------------------|----------------------------3---|

 |       |       |       |        |       |       |       |        
|--------------------------------|----------------0---------------|
|--------------------------------|--------------------------------|
|----------------3-------0-------|3-------------------------------|
|3---------------------------3---|--------------------------------|

 |       |       |       |        |       |       |       |        
|----------------0---------------|--------------------------------|
|--------------------------------|--------------------------------|
|3-------------------------------|3-------------------------------|
|--------------------------------|----------------3---------------|

 |       |       |       |        |       |       |       |        
|--------------------------------|--------------------------------|
|------------------------0---2---|3-------------------------------|
|3-------------------3-----------|----------------3---------------|
|--------------------------------|--------------------------------|

 |       |       |       |        |       |       |       |        
|--------------------------------|--------------------------------|
|3---------------3---------------|--------------------------------|
|--------------------------------|3-------------------------------|
|--------------------------------|----------------3-----------3---|

 |       |       |       |        |       |       |       |        
|--------------------------------|--------------------------------|
|--------------------------------|3-------------------------------|
|--------0-------3-------0-------|----------------3---------------|
|3---------------------------3---|--------------------------------|

 |       |       |       |        |       |       |       |        
|--------------------------------|--------------------------------|
|3---------------3---------------|0-------------------------------|
|--------------------------------|----------------0---------------|
|------------------------3-------|--------------------------------|

 |       |       |       |        |       |       |       |        
|--------------------------------|0---0---------------------------|
|----------------0---------------|--------------------------------|
|--------------------------------|----------------0-------2-------|
|3-------------------------------|--------3-------------------3---|

 |       |       |       |        |       |       |       |        
|--------------------------------|--------------------------------|
|--------------------------------|--------------------------------|
|3-------------------------------|3-------------------------------|
|----------------3---------------|----------------3---------------|

 |       |       |       |        |       |       |       |        
|--------------------------------|--------------------------------|
|--------------------------------|--------------------------------|
|3---------------3---------------|----------------3-------0-------|
|--------------------------------|3---------------------------3---|

 |       |       |       |        |       |       |       |        
|--------------------------------|--------------------------------|
|--------------------------------|--------------------------------|
|3-------------------------------|3-------------------------------|
|----------------3---------------|----------------3---------------|

 |       |       |       |        |       |       |       |        
|--------------------------------|--------------------------------|
|--------------------------------|--------------------------------|
|3---------------3-------0-------|----------------3-------0-------|
|----------------------------3---|3-------3---3---------------3---|

 |       |       |       |        |       |       |       |        
|--------------------------------|--------------------------------|
|3-------------------------------|3---------------3---------------|
|----------------3---------------|--------------------------------|
|--------------------------------|--------------------------------|

 |       |       |       |        |       |       |       |        
|--------------------------------|--------------------------------|
|--------------------------------|--------------------------------|
|3-------------------------------|--------0-------3-------0-------|
|----------------3-----------3---|3---------------------------3---|

 |       |       |       |        |       |       |       |        
|--------------------------------|--------------------------------|
|3-------------------------------|3---------------3---------------|
|----------------3---------------|--------------------------------|
|--------------------------------|------------------------3-------|

 |       |       |       |        |       |       |       |        
|--------------------------------|--------------------------------|
|0-------------------------------|----------------0---------------|
|----------------0---------------|--------------------------------|
|--------------------------------|3---------------------------3---|

 |       |       |       |        |       |       |       |        
|10------10----------------------|--------------------------------|
|--------------------------------|--------------------------------|
|----10----------------------0---|3-------------------------------|
|------------10--3-------3-------|----------------3---------------|

 |       |       |       |        |       |       |       |        
|--------------------------------|--------------------------------|
|--------------------------------|--------------------------------|
|3-------------------------------|3---------------3---------------|
|----------------3---------------|--------------------------------|

 |       |       |       |        |       |       |       |        
|--------------------------------|--------------------------------|
|--------------------------------|--------------------------------|
|----------------3-------0-------|3-------------------------------|
|3---------------------------3---|----------------3---------------|

 |       |       |       |        |       |       |       |        
|--------------------------------|--------------------------------|
|--------------------------------|--------------------------------|
|3-------------------------------|3---------------3---------------|
|----------------3---------------|--------------------------------|

 |       |       |       |        |       |       |       |        
|--------------------------------|--------------------------------|
|--------------------------------|--------------------------------|
|----------------3-------0-------|3---------------3---------------|
|3---------------------------3---|--------------------------------|

 |       |       |       |        |       |       |       |        
|--------------------------------|--------------------------------|
|--------------------------------|--------------------------------|
|----------------3---------------|--------------------------------|
|3-------------------------------|--------------------------------|

 |       |       |       |        |       |       |       |        
|--------------------------------|--------------------------------|
|--------------------------------|--------------------------------|
|--------------------------------|--------------------------------|
|--------------------------------|--------------------------------|

 |       |       |       |        |       |       |       |        
|--------------------------------|--------------------------------|
|--------------------------------|--------------------------------|
|--------------------------------|--------------------------------|
|--------------------------------|--------------------------------|

 |       |       |       |        |       |       |       |        
|--------------------------------|--------------------------------|
|--------------------------------|--------------------------------|
|3-------------------------------|3-------------------------------|
|----------------3---------------|----------------3---------------|

 |       |       |       |        |       |       |       |        
|--------------------------------|--------------------------------|
|--------------------------------|--------------------------------|
|3---------------3---------------|----------------3-3-----0-------|
|----------------------------3---|3---------------------------3---|

 |       |       |       |        |       |       |       |        
|--------------------------------|--------------------------------|
|--------------------------------|--------------------------------|
|3-------------------------------|3-------------------------------|
|----------------3---------------|----------------3---------------|

 |       |       |       |        |       |       |       |        
|--------------------------------|--------------------------------|
|--------------------------------|--------------------------------|
|3---------------3---------------|--------0-------3---------------|
|----------------------------3---|3-------------------------------|

 

Created with TablEdit http://www.tabledit.com/
............................................................


Расскажи друзьям!




Войдите, используя Ваш аккаунт:



Забыли пароль?
Зарегистрироваться

Войти с помощью:

Привет, гитарист!

Пройди супер-курс по гитаре и порази всех своей игрой!

Забрать курс!
ВАМ ПОДАРКИ ОТ ПРОЕКТА
"ГИТАРНАЯ РЕВОЛЮЦИЯ"