Gitaristu.ru
Аккорды Табулатура Начинающим Мастер-класс Софт Видео Форум Блог
Новости Анонсы Гитары Гитаристы Статьи Аватарки Минусовки
Поиск





Популярные подборы




Настройка гитары






Главная > Аккорды > A > Alan Jackson

Аккорды
Alan Jackson
-
Gone country (аккорды)



Подбор прислал: gitaristu.ru


From: theTone 
Subject:       Gone Country - Alan Jackson CRD (intro TAB)

Gone Country - Alan Jackson (Bob McDill)
----------------------------------------

  G                      D               C
|----------3----------------------------------------------3---|
|----------3-------------------------3---------------0^1------|
|----------0---------------------2---------------0------------|
|------------------------0------------------------------------|
|----------------2---3-------------------3--------------------|
|--0----------------------------------------------------------|

And this repeated 4 times. This is not the correct picking, but I 
don't
know what he really does (during the C-chord) so I play this.

In between the lines this is played too.

G                                   C         D            (riff)
She's been playing that room on the ....
      G                      C          D        (riff)
Every night she looks in the ...
           G                                   C            D         
  (riff)
She's been reading 'bout Nashville ....
everybody's buying
           G                  C    D          (riff)
Says I'm a simple ....
       Em                D
So she packs her bags to ...
     Em            D
Says this might be my ....

first chorus:
           G        C            D
She's gone country, ...
           G        C           D
She's gone country, ...
           G        C             D
She's gone country...
           Em       NC
She's gone country...




This one was requested, so here it is
asPromised
theTone

From alt.guitar.tab Tue Feb 21 13:51:27 1995
From: theTone@stpc.wi.LeidenUniv.nl (KRAMER-A)
Date: Mon, 20 Feb 1995 14:07:44 GMT
Newsgroups: alt.guitar.tab
Subject: CRD Gone Country - Alan Jackson (intro TAB)

Gone Country - Alan Jackson (Bob McDill)
----------------------------------------

  G                      D               C
|----------3----------------------------------------------3---|
|----------3-------------------------3---------------0^1------|
|----------0---------------------2---------------0------------|
|------------------------0------------------------------------|
|----------------2---3-------------------3--------------------|
|--0----------------------------------------------------------|

And this repeated 4 times. This is not the correct picking, but I don't
know what he really does (during the C-chord) so I play this.

In between the lines this is played too.

G                                   C         D            (riff)
She's been playing that room on ....
      G                      C          D        (riff)
Every night she looks in the ....
           G                                   C            D           (riff)
She's been reading 'bout Nashville ....
           G                  C    D          (riff)
Says I'm a simple girl myself ...
       Em                D
So she packs her ...
     Em            D
Says this might be ...

first chorus:
           G        C            D
She's gone country, look ...
           G        C           D
She's gone country, ...
           G        C             D
She's gone country, a ...
           Em       NC
She's gone country, ...


This one was requested, so here it is
asPromised
theTone

From rec.music.makers.guitar.tablature Wed Feb 22 10:55:01 1995
From: theTone@stpc.wi.LeidenUniv.nl (theTone)
Date: Mon, 20 Feb 1995 14:11:35 GMT
Newsgroups: rec.music.makers.guitar.tablature
Subject: CRD Gone Country - Alan Jackson (intro TAB)

Gone Country - Alan Jackson (Bob McDill)
----------------------------------------

  G                      D               C
|----------3----------------------------------------------3---|
|----------3-------------------------3---------------0^1------|
|----------0---------------------2---------------0------------|
|------------------------0------------------------------------|
|----------------2---3-------------------3--------------------|
|--0----------------------------------------------------------|

And this repeated 4 times. This is not the correct picking, but I don't
know what he really does (during the C-chord) so I play this.

In between the lines this is played too.

G                                   C         D            (riff)
She's been playing that room on the ...
      G                      C          D        (riff)
Every night she looks in the mirror ...
           G                                   C            D           (riff)
She's been reading 'bout Nashville and ...
           G                  C    D          (riff)
Says I'm a simple girl myself ...
       Em                D
So she packs her bags ...
     Em            D
Says this might be my ...

first chorus:
           G        C            D
She's gone country, look ...
           G        C           D
She's gone country, back ...
           G        C             D
She's gone country, a ...
           Em       NC
She's gone country, ...


This one was requested, so here it is
asPromised
theTone


Расскажи друзьям!




Войдите, используя Ваш аккаунт:



Забыли пароль?
Зарегистрироваться

Войти с помощью:

Привет, гитарист!

Пройди супер-курс по гитаре и порази всех своей игрой!

Забрать курс!
ВАМ ПОДАРКИ ОТ ПРОЕКТА
"ГИТАРНАЯ РЕВОЛЮЦИЯ"