Gitaristu.ru
Аккорды Табулатура Начинающим Мастер-класс Софт Видео Форум Блог
Новости Анонсы Гитары Гитаристы Статьи Аватарки Минусовки
Поиск





Популярные подборы




Настройка гитары






Главная > Аккорды > C > Coldplay

Аккорды
Coldplay
-
42 (табулатура)



Подбор прислал: gitaristu.ru
-----------------------------------------------------------------------
                             42 - Coldplay
-----------------------------------------------------------------------
Tabbed by: Riii

This is the solo of 42, a fantastic song by Coldplay. There are actually 2 solos. At the first
one there are two guitars.

Guitar 1, play this part 4 times:
e|----------------------------------------------------------------------|
B|--10------------------------------10----------------------------------|
G|-------10-12-10---12B13D12--10--------10-12-10--12B13D12-10-----------|
D|----------------------------------------------------------------------|
A|----------------------------------------------------------------------|
E|----------------------------------------------------------------------|

e|---------------------------------------------------------------------|
B|-10----------------------------------------------------------11------|
G|-----10-12--13-13-13-13-13-13-13-13-13-13-13-13-13-13-13------10-----|
D|---------------------------------------------------------------------|
A|---------------------------------------------------------------------|
E|---------------------------------------------------------------------|

Guitar 2, begin to play when the first guitar is going to start playing for the third time
This part is played 2 times.
e|-----------------------------------------------------------------------|
B|-----------------------------------------------------------------------|
G|-----------------------------------------------------------------------|
D|-----------------------------------------------------------------------|
A|-----------------------------------------------------------------------|
E|-9-8-6-5/11\5---9-8-6-5/11\5---9-8-6-4/11\4---9-8-6-3/11\3-------------|

Solo 2, play this 2 times:
e|----------------------------------------------------------------------|
B|------------------------6--------------------------6------------------|
G|--8-8-5--8--8--5-8--8-------8-8-5--8--8--5-8--8-----------------------|
D|----------------------------------------------------------------------|
A|----------------------------------------------------------------------|
E|----------------------------------------------------------------------|

e|----------------------------------------------------------------------|
B|----------------------------------------------------------------------|
G|----------------------------------------------------------------------|
D|--6-6-6-6--6-6-6--8-------6-6-6-6--6-6-6--8---------------------------|
A|----------------------8-----------------------8-----------------------|
E|----------------------------------------------------------------------|

The second time at the end:
e|----------------------------------------------------------------------|
B|----------------------------------------------------------------------|
G|-----------------5-------5--------------------------------------------|
D|---6-6-6-6--6-6----8-6-----8-6----------------------------------------|
A|----------------------------------------------------------------------|
E|----------------------------------------------------------------------|
this was my first tab. I hope you liked it! I
Расскажи друзьям!




Войдите, используя Ваш аккаунт:



Забыли пароль?
Зарегистрироваться

Войти с помощью:

Привет, гитарист!

Пройди супер-курс по гитаре и порази всех своей игрой!

Забрать курс!
ВАМ ПОДАРКИ ОТ ПРОЕКТА
"ГИТАРНАЯ РЕВОЛЮЦИЯ"