Gitaristu.ru
Аккорды Табулатура Начинающим Мастер-класс Софт Видео Форум Блог
Новости Анонсы Гитары Гитаристы Статьи Аватарки Минусовки
Поиск





Популярные подборы




Настройка гитары






Главная > Аккорды > C > Coldplay

Аккорды
Coldplay
-
Beautiful world (табулатура)



Подбор прислал: gitaristu.ru


    
Beautiful World
by Coldplay, tabbed by Chris Weed

It might all be wrong but I tried doing it by ear since i couldnt find a tab for it.
 
        F    F         F  F   F         F  F   F     F          F   F    F/A
Rhythm: 
e---x--x----x---x--x---x-------x---x--x----x-----x--x---x----x------|   
b---1--1---1--1--1---1------1--1--1----1----1--1--1----1-----|   
g---2--2---0h2--2---2------0h2--2----2----0h2--2----2------|  
d---3--3---0h3--3---3------0h3--3----3----0h3--3----2------|  
a---3--3---0h3--3---3------0h3--3----3----0h3--3----3------|  
e---x---x---x---x--x----x------x--x---x----x-----x--x---x----x------|


Lead: For the Intro you do the same as the rhythm guitar....notice you come in after the 
rhythm guitar does the hammer on part once.  

Chorus: 
e---5-5-5-5-5-5-5-5-7-7-7-7-8-8-8-8------------5-5-5-5---8-8--7-----5----|
b-----------------------------------------------5-5-5-5-5-5-5-5---5-5-----5--------|
g------------------------------------------------------------------------------------------|
d------------------------------------------------------------------------------------------|
a------------------------------------------------------------------------------------------|
e------------------------------------------------------------------------------------------|

e---5-5-5-5-5-5-5-5-7-7-7-7-8-8-8-8---------5-----------------------5--------------|
b------------------------------------------------5h6------5h6---5----5h6-----5h6---5--|
g------------------------------------------------------------------------------------------------|
d------------------------------------------------------------------------------------------------|
a------------------------------------------------------------------------------------------------|
e------------------------------------------------------------------------------------------------|


Solo/Riff 1 :  
e--------------------------------------------------------|
b---5----8--6--5h6--5----8--6--5-----------------|
g------------------------------------------7---5-------|
d--------------------------------------------------------|
a--------------------------------------------------------|
e--------------------------------------------------------|

Solo/Riff 2: 
e---/-----12------12------12------12-----12------12-----12-----12-/---------6---
b---/-13-----13------13------13-----13-----13------13-----13------/---5h6-----
	         
e----------------------5-----------------|
b---5h6---5---5h6----5h6---5-----|

Song Order:

Rythym plays the Intro the whole song. That is pretty much the rhythm jsut fool 
around with the F and F/A chords.

Intro/ Verse/Outro
Chorus (x1)
Intro/ Verse/Outro
Chorus (x1)
Solo Riff 1 (x2)
Chorus (x1)
Solo Riff 2 (x2)
Intro/Verse/Outro

KEY:  h = hammer on
           /  = slide up or down


Расскажи друзьям!




Войдите, используя Ваш аккаунт:



Забыли пароль?
Зарегистрироваться

Войти с помощью:

Привет, гитарист!

Пройди супер-курс по гитаре и порази всех своей игрой!

Забрать курс!
ВАМ ПОДАРКИ ОТ ПРОЕКТА
"ГИТАРНАЯ РЕВОЛЮЦИЯ"