Gitaristu.ru
Аккорды Табулатура Начинающим Мастер-класс Софт Видео Форум Блог
Новости Анонсы Гитары Гитаристы Статьи Аватарки Минусовки
Поиск





Популярные подборы




Настройка гитары






Главная > Аккорды > C > Coldplay

Аккорды
Coldplay
-
Clocks (бас)



Подбор прислал: gitaristu.ru



Date: Tue, 6 May 2003 14:01:08 -0700 (PDT)
From: joel thurman 
Subject: c/coldplay/clocks.btab


Artist: Coldplay

Album: A Rush Of Blood To The Head

Song: Clocks

Tabbed by Joey (myownvividblood@yahoo.com)

Standard E, A, D, G tuning

Key

/=Slide up

=Slide down

===========================================================================

Intro Rest

 

Verse (0:15-Lights..., 1:28-Confusion...)

 

G|----------------|----------------|

D|----------------|----------------|

A|-6-6-6-6-6-6-6-6|----------------|

E|----------------|-6-6-6-6-6-6-6-6|

 

G|----------------|-----------------||

D|----------------|-----------------||

A|----------------|-8-8-8-8-8-8-8-8-||

E|-6-6-6-6-6-6-6-6|-----------------||

 

Refrain (0:59 amp; 1:57-You are...)

 

G|----------------|----------------|

D|----------------|----------------|

A|-6-6-6-6-6-6-6-6|----------------|

E|----------------|-6-6-6-6-6-6-6-6|

 

G|----------------|-----------------||

D|----------------|-----------------||

A|----------------|-----------------||

E|-6-6-6-6-6-6-6-6|1-1-1-1-1-1-1-1/||

 

Chorus (1:13, 2:26, 3:40-Home...)

 

G|----------------|----------------|

D|-------------6-8|-8-8-8-8-8-8-8-8|

A|-6-6-6-6-6-6----|----------------|

E|----------------|----------------|

 

G|------------------|--------------------||

D|-10-8-8-8-6-6-6---|--------------------||

A|----------------10|-10-----------------||

E|------------------|----6-6-6-6-6-6-6-6-||

 

Bridge (2:56-And nothing...)

 

G|----------------|----------------|

D|----------------|----------------|

A|-9-9-9-9-9-9-9-9|-9-9-9-9-9-9-9-9|

E|----------------|----------------|

 

G|----------------|-------------------------||

D|----------------|-------------------------||

A|----------------|-11-11-11-11-11-11-11-11-||

E|-9-9-9-9-9-9-9-9|-------------------------||

 

G|------------------------|------------------------|

D|------------------------|------------------------|

A|-11-11-11-11-11-11-11-11|-11-11-11-11-11-11-11-11|

E|------------------------|------------------------|

 

G|-------------------------|

D|-------------------------|

A|-11-11-11-11-11-11-11-11-|

E|-------------------------|

 

G|------------------------|-----------------|

D|------------------------|-----------------|

A|/19-19-19-19-19-19-19-19|6---------------|

E|------------------------|-----------------|

 

G|---------------|---------------|

D|---------------|---------------|

A|---------------|---------------|

E|---------------|---------------|

 

Outro (4:38)

 

G|----------------|---------------|

D|----------------|---------------|

A|-6--------------|---------------|

E|----------------|6--------------|

 

G|---------------|------------------||

D|---------------|------------------||

A|---------------|-8----------------||

E|---------------|------------------||

 

===========================================================================

This is my first tabulation, so any suggestions/corrections are
definitely welcome. There's no way this tab could ever do the song
justice, but I think its close enough that you should get the general
idea. Coldplay ROCKS    Tab more Coldplay stuff, people 


Расскажи друзьям!




Войдите, используя Ваш аккаунт:



Забыли пароль?
Зарегистрироваться

Войти с помощью:

Привет, гитарист!

Пройди супер-курс по гитаре и порази всех своей игрой!

Забрать курс!
ВАМ ПОДАРКИ ОТ ПРОЕКТА
"ГИТАРНАЯ РЕВОЛЮЦИЯ"