Gitaristu.ru
Аккорды Табулатура Начинающим Мастер-класс Софт Видео Форум Блог
Новости Анонсы Гитары Гитаристы Статьи Аватарки Минусовки
Поиск





Популярные подборы




Настройка гитары






Главная > Аккорды > C > Coldplay

Аккорды
Coldplay
-
Crests Of Waves (табулатура)



Подбор прислал: gitaristu.ru
Coldplay - Crests of Waves
you'll have to use your playing by ear abilities for the details of this song

Capo 2

Tuning
D 
B
G
D
A
E


     D. Stroke                                     
-0-|  |-7------------0------------|    |-0--0--0-0| |-2--2--2-2|
-5-|  |-7-7--------3---3-2--------|    |-0--0--0-0| |-2--2--2-2|
-0-|  |-7----2-h-4---------4-2-4--| X3 |-0--0--0-0| |-2--2--2-2|
-0-|  |-9-------------------------|    |-2--2--2-2| |-4--4--4-4|
-5-|  |---------------------------|    |-2--0--2-2| |-4--4--4-4|
-5-|  |---------------------------|    |-0--0--0-0| |-2--2--2-2|

It could be worse I could be alone
           |-0--0--0--0|       |-0--0--0--0|
           |-3--3--3--3|       |-0--0--0--0|
           |-4--4--4--4|       |-4--4--4--4|
           |-4--4--4--4|       |-5--5--5--5|
           |-2--0--2--2|       |-5--5--5--5|
           |-x--x--x--x|       |-3--3--3--3|
I could be locked in here on my own
           |-0--0--0--0|       |-2--2--2--2|
           |-3--3--3--3|       |-2--2--2--2|
           |-0--0--0--0|       |-2--2--2--2|
           |-2--2--2--2|       |-4--4--4--4|
           |-2--0--2--2|       |-4--4--4--4|
           |-0--0--0--0|       |-2--2--2--2|
or like a stone that suddenly drops it never 
           |-0--0--0--0|     |-0--0--0--0|
           |-3--3--3--3|     |-0--0--0--0|
           |-4--4--4--4|     |-4--4--4--4|
           |-4--4--4--4|     |-5--5--5--5|
           |-2--0--2--2|     |-5--5--5--5|
           |-x--0--0--0|     |-3--3--3--3|
stops          no
|-0--0--0--0| |-2--2--2--2|   X2
|-3--3--3--3| |-2--2--2--2|
|-0--0--0--0| |-2--2--2--2|
|-2--2--2--2| |-4--4--4--4|
|-2--0--2--2| |-4--4--4--4|
|-0--0--0--0| |-2--2--2--2|

  OOH   OH        OH   
 |-7------------0------------|    |-0--0--0-0| |-2--2--2-2|
 |-7-7--------3---3-2--------|    |-0--0--0-0| |-2--2--2-2|
 |-7----2-h-4---------4-2-4--| X3 |-0--0--0-0| |-2--2--2-2|
 |-9-------------------------|    |-2--2--2-2| |-4--4--4-4|
 |-D. Stroke-----------------|    |-2--0--2-2| |-4--4--4-4|
 |---------------------------|    |-0--0--0-0| |-2--2--2-2|

      
Расскажи друзьям!




Войдите, используя Ваш аккаунт:



Забыли пароль?
Зарегистрироваться

Войти с помощью:

Привет, гитарист!

Пройди супер-курс по гитаре и порази всех своей игрой!

Забрать курс!
ВАМ ПОДАРКИ ОТ ПРОЕКТА
"ГИТАРНАЯ РЕВОЛЮЦИЯ"