Gitaristu.ru
Аккорды Табулатура Начинающим Мастер-класс Софт Видео Форум Блог
Новости Анонсы Гитары Гитаристы Статьи Аватарки Минусовки
Поиск





Популярные подборы




Настройка гитары






Главная > Аккорды > C > Coldplay

Аккорды
Coldplay
-
Death And All His Friends bass (табулатура)



Подбор прислал: gitaristu.ru
-------------------------------------------------------------------------------
			     DEATH AND ALL HIS FRIENDS - Coldplay
-------------------------------------------------------------------------------

Tabbed By : stephen_91

Tuning:Standard

hey coldplayers this is my first tab and iv only be playing bass for a few months so 
be kind!!!

Bass silent until 1:49

Riff 1 (1:49)
G|---------------------------------------------------------------------------|
D|---------------------------------------------------------------------------|
A|-3-3-3-3-3-3----------------6-6-6-----6---6------6-6-----66---6------------|
E|-------------6-6-6-6-6-6-6---------6-8--8----6-8-----6-8----8--------------|

G|---------------------------------------------------------------------------|
D|---------------------------------------------------------------------------|
A|-----6-6------6---6------6-6-----66---6------------------------------------|
E|-6-8------6-8---8----6-8-----6-8----8--------------------------------------|

G|---------------------------------------------------------------------------|
D|---------------------------------------------------------------------------|
A|-3-3-3-3-3-3----------------6-6-6-----6---6------6-6-----66---6------------|
E|-------------6-6-6-6-6-6-6---------6-8--8----6-8-----6-8----8--------------|


Riff 2 (2:19)
G|---------------------------------------------------------------------------|
D|-------------------------------3-5-5-55-55---------------------------------|
A|-5-5-3-3-33-33-6-6-5-5-55-55-6-------------5-5-3-3-33-33-6-5-3-3-33-33-----|
E|---------------------------------------------------------------------------|

G|---------------------------------------------------------------------------|
D|-----------------3-5-5-55-55-----------------------------------------------|
A|-6-6-5-5-55-55-6-------------5-5-3-3-33-33-6-5-3-3-33-33-3-6-6-5-5-55-55---|
E|---------------------------------------------------------------------------|

G|---------------------------------------------------------------------------|
D|---3-5-5-55-55-----------------------------------------------3-5-5-55-55---|
A|-6-------------5-5-3-3-33-33-6-5-3-3-33-33-3-6-6-5-5-55-55-6---------------|
E|---------------------------------------------------------------------------|

G|---------------------------------------------------------------------------|
D|---------------------------------------------------------------------------|
A|-5-5-3-3-33-33-6-5-3(let ring)---------------------------------------------|
E|---------------------------------------------------------------------------|

my favourite track off the new record, congratulations to coldplay on another awesome album
===============================================================================
Расскажи друзьям!




Войдите, используя Ваш аккаунт:



Забыли пароль?
Зарегистрироваться

Войти с помощью:

Привет, гитарист!

Пройди супер-курс по гитаре и порази всех своей игрой!

Забрать курс!
ВАМ ПОДАРКИ ОТ ПРОЕКТА
"ГИТАРНАЯ РЕВОЛЮЦИЯ"