Gitaristu.ru
Аккорды Табулатура Начинающим Мастер-класс Софт Видео Форум Блог
Новости Анонсы Гитары Гитаристы Статьи Аватарки Минусовки
Поиск





Популярные подборы




Настройка гитары






Главная > Аккорды > C > Coldplay

Аккорды
Coldplay
-
Dont panic (бас)



Подбор прислал: gitaristu.ru



Date: Wed, 17 Dec 2003 23:20:38 -0500
From: Peter Baldwin 
Subject: c/coldplay/dont_panic.btab

Don't Panic
Coldplay

Bass Tab:


Riff 1

   1+2+3+4+1+2+3+4+1+2+3+4+1+2+3+4+
G-----------------------------------
D------------------3--333-333-333---
A----------3--3-33---------------3--
E--5--5-55--------------------------


   1+2+3+4+1+2+3+4+1+2+3+4+1+2+3+4+
G-----------------------------------
D------------------3--333-333-3353--
A----------3--3-33------------------
E--5--5-55--------------------------

Riff 2

   1+2+3+4+1+2+3+4+1+2+3+4+1+2+3+4+
G-----------------------------------
D-----------------------------------
A--5--55---5--55--------------------
E------------------5--55----3-3-----

   1+2+3+4+1+2+3+4+1+2+3+4+1+2+3+4+
G-----------------------------------
D-----------------------------------
A--5--55--55--55--------------------
E------------------1--11--11010131--

Outro

   1+2+3+4+1+2+3+4+1+2+3+4+1+2+3+4+
G-----------------------------------
D------------------3--333-333-333---
A----------3--3-33---------------3--
E--5--5-55--------------------------


   1+2+3+4+1+2+3+4+1+2+3+4+1+2+3+4+
G-----------------------------------
D------------------3----------------
A----------3--3-33------------------
E--5--5-55--------------------------


Intro (no bass)
Riff 1
Riff 2
Riff 1
Riff 2
Riff 1
Riff 2
Riff 1
Outro


Расскажи друзьям!




Войдите, используя Ваш аккаунт:



Забыли пароль?
Зарегистрироваться

Войти с помощью:

Привет, гитарист!

Пройди супер-курс по гитаре и порази всех своей игрой!

Забрать курс!
ВАМ ПОДАРКИ ОТ ПРОЕКТА
"ГИТАРНАЯ РЕВОЛЮЦИЯ"