Gitaristu.ru
Аккорды Табулатура Начинающим Мастер-класс Софт Видео Форум Блог
Новости Анонсы Гитары Гитаристы Статьи Аватарки Минусовки
Поиск





Популярные подборы




Настройка гитары






Главная > Аккорды > C > Coldplay

Аккорды
Coldplay
-
Dont panic (табулатура)



Подбор прислал: gitaristu.ru



Date: Fri, 2 Feb 2001 23:28:40 -0500
From: Tom Woollan 
Subject: c/coldplay/dont_panic.tab

Tabbed by: Tom Woollan
Email:     

Title:     Don't Panic
Album:     Parachutes
Artist:    Coldplay

*This is all my own work*

Bar 1:
|-0--0---0--0---0--0---0--0-|
|-1--1---1--1---1--1---1--1-|
|-2--0h2-2--0h2-2--0h2-2--2-|
|-3--3---3--3---3--3---3--3-|
|---------------------------|
|---------------------------|

Bar 2:
|-0---0--0-0--0---0--0-0-|
|-1---1--1-1--1---1--1-1-|
|-2---2--2-2--0---0--0-0-|
|-2---2--2-2--2---2--2-2-|
|-0---0-------3---3------|
|------------------------|

Bar 3:
|-1---1--1-1--1---1--1-1-|
|-3---3--3-3--3---3--3-3-|
|-2---2--2-2--2---2--2-2-|
|-0---0--0-0--0---0--0-0-|
|------------------------|
|------------------------|

Bar 4:
|-0---0--0-0--3---3--3-3-|
|-1---1--1-1--0---0--0-0-|
|-2---2--2-2--0---0--0-0-|
|-2---2--2-2--0---0--0-0-|
|-0---0--0-0--2---2--2-2-|
|-------------3---3--3-3-|


Guitar 1:

Intro 1:  Bar 1 (x2)
Verse 1:  Bar 2, Bar 1, Bar 2, Bar 1
Chorus 1: Bar 3, Bar 4, Bar 3, Bar 1
Verse 2:  Repeat Verse 1
Chorus 2: Repeat Chorus 1
Bridge:   Repeat Verse 1
Chorus 3: Repeat Chorus 1
Solo:     Repeat Verse 1
Verse 3:  Bar 2, Bar 1, Bar 2, F


Guitar 2:
In each chorus, play:
|-------------------------------------------------|
|-10-10-10-10-10-10-10-10/12-12-12-12/13-13-13-13|
|-------------------------------------------------|
|-------------------------------------------------|
|-------------------------------------------------|
|-------------------------------------------------|

|----------------------15-15-----15----|
|5-5-5-5-5/10-10-10---13-13--13----13|
|--------------------------------------|
|--------------------------------------|
|--------------------------------------|
|--------------------------------------|

|-------------------------------------------------|
|-10-10-10-10-10-10-10-10/12-12-12-12/13-13-13-13|
|-------------------------------------------------|
|-------------------------------------------------|
|-------------------------------------------------|
|-------------------------------------------------|

|-----5------------5-------|
|5h6---5h6-5--5h6---5h6-5-|
|--------------------------|
|--------------------------|
|--------------------------|
|--------------------------|

For the third chorus, leading into the solo, play the last bar as:
|-----5------------5------|
|5h6---5h6-5--5h6---5-5/-|
|-------------------------|
|-------------------------|
|-------------------------|
|-------------------------|

Solo:
|----12--12--12--12--12--12--12---|-----5------------5-------|
|/13---13--13--13--13--13--13--13-|5h6---5h6-5--5h6---5h6p5-|
|---------------------------------|--------------------------|
|---------------------------------|--------------------------|
|---------------------------------|--------------------------|
|---------------------------------|--------------------------|

|----12--12--12--12--12--12--12---|-----5------------5-------|
|/13---13--13--13--13--13--13--13-|5h6---5h6-5--5h6---5h6---|
|---------------------------------|--------------------------|
|---------------------------------|--------------------------|
|---------------------------------|--------------------------|
|---------------------------------|--------------------------|

And that's it.  I hope its easy enough to follow.


Расскажи друзьям!




Войдите, используя Ваш аккаунт:



Забыли пароль?
Зарегистрироваться

Войти с помощью:

Привет, гитарист!

Пройди супер-курс по гитаре и порази всех своей игрой!

Забрать курс!
ВАМ ПОДАРКИ ОТ ПРОЕКТА
"ГИТАРНАЯ РЕВОЛЮЦИЯ"