Gitaristu.ru
Аккорды Табулатура Начинающим Мастер-класс Софт Видео Форум Блог
Новости Анонсы Гитары Гитаристы Статьи Аватарки Минусовки
Поиск





Популярные подборы




Настройка гитары






Главная > Аккорды > C > Coldplay

Аккорды
Coldplay
-
Fix You bass (табулатура)



Подбор прислал: gitaristu.ru
Coldplay- Fix You
Tabbed by Brent White

This is the exact bass line, but it's a good variation of it. 
I added in my own variations from the actual song so the bassist can mix it up. 
Feel free to improvise using the variations.

Will post a Youtube video of how to play it on a later date

Intro and Verse
G---------------------|----------------------------------------|
D-----------8--10---8-|----------------------------------------|
A-6---8/10------------|--6---8/10-----5-----3-----1------------|
E---------------------|----------------------------------------|

Variation of Intro and Verse
G---------------------|----------------------------------------|
D-----------8--10---8-|----------------------------------------|
A-6---8/10------------|--/13-15/17---12-----10-----8-----------|
E---------------------|----------------------------------------|

Chorus
G---------------------|----------------------------------------|
D---------------------|----------------------------------------|
A-11-11-10-8---------8|/11-11-10-8-----------------------------|
E-----------11-10-11--|------------11-10---------11----------- |

Variation of Chorus
G--------------------------|-----------------------------------|
D--------------------------|-----------------------------------|
A-11-11-10-8---------------|11-11/13
Расскажи друзьям!




Войдите, используя Ваш аккаунт:



Забыли пароль?
Зарегистрироваться

Войти с помощью:

Привет, гитарист!

Пройди супер-курс по гитаре и порази всех своей игрой!

Забрать курс!
ВАМ ПОДАРКИ ОТ ПРОЕКТА
"ГИТАРНАЯ РЕВОЛЮЦИЯ"