Gitaristu.ru
Аккорды Табулатура Начинающим Мастер-класс Софт Видео Форум Блог
Новости Анонсы Гитары Гитаристы Статьи Аватарки Минусовки
Поиск





Популярные подборы




Настройка гитары






Главная > Аккорды > C > Coldplay

Аккорды
Coldplay
-
God put a smile upon your face (бас)



Подбор прислал: gitaristu.ru


guitar riff: 
G|--------------------------------------------- 
D|---11-11-----11-11-----11-11-----9H119H119---
A|---------------------------------------------
E|-9-------9-9-------9-9-------9-9-----------9- 
verse: 
G|---------------------------------------- 
D|-11-11-----11-11-11----11-11-11---------
A|---------------------------------------- 
E|-------9-9----------9-9---------9-9..... 
and so on and so on until the 
chorus: 
---------------|---------------------------------
---------------|---------------------------------
---------------|---------------------------------5--5--5-5-5-5--|-5-5-5-5-5-5-5-------------------

---------------|---------------------------------
---------------|---------------------------------
-7-7-7-7-7-7-7-|-9-9-9-9-9-9-9-------------------
---------------|---------------------------------

--------------|----------------------------------
-7--7--7-7-7-7|-7-7-7-7-7-7-7--------------------
--------------|----------------------------------
--------------|----------------------------------

--------------|----------------------------------
--------------|----------------------------------
-7-7-7-7-7-7-7|-9-9-9-9-9-9-9----------------------------------|----------------------------------

-11-9------|play this on the final chorus   
------11-9-|instead of the normal end of the 
-----------|chorus
-----------|

Расскажи друзьям!




Войдите, используя Ваш аккаунт:



Забыли пароль?
Зарегистрироваться

Войти с помощью:

Привет, гитарист!

Пройди супер-курс по гитаре и порази всех своей игрой!

Забрать курс!
ВАМ ПОДАРКИ ОТ ПРОЕКТА
"ГИТАРНАЯ РЕВОЛЮЦИЯ"