Gitaristu.ru
Аккорды Табулатура Начинающим Мастер-класс Софт Видео Форум Блог
Новости Анонсы Гитары Гитаристы Статьи Аватарки Минусовки
Поиск





Популярные подборы




Настройка гитары






Главная > Аккорды > C > Coldplay

Аккорды
Coldplay
-
How You See The World bass (табулатура)



Подбор прислал: gitaristu.ru
-------------------------------------------------------------------------------
			     How You See the World - Coldplay
-------------------------------------------------------------------------------

Tabbed By : stephen_91

Tuning: Standard

**During the verses and pre verses of this track Guy just shakes a tambourine
but if you want to play something heres a suggestion - just play it repeatedly
over the verse in time with the guitar:
G|---------------------------------------------------------------------------|
D|---------------------------------------------------------------------------|
A|---------------------------------------------------------------------------|
E|-4--6-7---0--1-3-----------------------------------------------------------|

Pre-chorus - Silent

Chorus
G|---------------------------------------------------------------------------|
D|---------------------------------------------------------------------------|
A|-7---77---------6---66--7---77--7---77-------------------------------------|
E|--------4---44--------------------------4---44--2---22--0---00-------------|

Pre-verse - see header

Outro (repeat to end, finish with fret 4 on E string)
G|---------------------------------------------------------------------------|
D|-2-------------------2-----------------------------------------------------|
A|----4--------2-----2----4-------2----2-------------------------------------|
E|---------4-24-4--24-4-------4-24-4-24-4------------------------------------|

The outro is easier than it looks, just keep your index finger on fret 2 and ring finger 
fret 4. enjoy =)

| /  slide up
| \  slide down
| h  hammer-on
| p  pull-off
| ~  vibrato
| +  harmonic
| x  Mute note
===============================================================================
Расскажи друзьям!




Войдите, используя Ваш аккаунт:



Забыли пароль?
Зарегистрироваться

Войти с помощью:

Привет, гитарист!

Пройди супер-курс по гитаре и порази всех своей игрой!

Забрать курс!
ВАМ ПОДАРКИ ОТ ПРОЕКТА
"ГИТАРНАЯ РЕВОЛЮЦИЯ"