Gitaristu.ru
Аккорды Табулатура Начинающим Мастер-класс Софт Видео Форум Блог
Новости Анонсы Гитары Гитаристы Статьи Аватарки Минусовки
Поиск





Популярные подборы




Настройка гитары






Главная > Аккорды > C > Coldplay

Аккорды
Coldplay
-
I Ran Away bass (табулатура)



Подбор прислал: gitaristu.ru
-------------------------------------------------------------------------------
			     I Ran Away - Coldplay
-------------------------------------------------------------------------------

Tabbed By : dvanwyk
e-mail: dustinvanwyk@yahoo.com

 Tuning:Standard
 Intro(Start at 0.11)
G|------------------------------------------------|
D|------------------------------------------------|
A|4-4--------4-4--------4-4--------4-4--------4~--|
E|---4-5-5-4----4-5-5-4----4-5-5-4----4-5-5-4-----|

 No bass during the verse
 Chorus x3
G|--9---7---9---7---7-------------------------------------------------------------------|
D|---7h9-----7h9------5/7---------------------------------------------------------------|
A|7-------9-------5---------------------------------------------------------------------|
E|------------------------5~------------------------------------------------------------|

 x1
G|--7/9------7/9---------------------------------------------------------------------|
D|------7~-------7~------------------------------------------------------------------|
A|5~--------5~-----------------------------------------------------------------------|
E|-----------------------------------------------------------------------------------|

 Interlude
G|------------------------------------------------|
D|------------------------------------------------|
A|4-4--------4-4--------4-4--------4-4--------4~--|
E|---4-5-5-4----4-5-5-4----4-5-5-4----4-5-5-4-----|
 No Bass during verse
 Chorus x3
G|--9---7---9---7---7-------------------------------------------------------------------|
D|---7h9-----7h9------5/7---------------------------------------------------------------|
A|7-------9-------5---------------------------------------------------------------------|
E|------------------------5~------------------------------------------------------------|

 x1
G|--7/9------7/9---------------------------------------------------------------------|
D|------7~-------7~------------------------------------------------------------------|
A|5~--------5~-----------------------------------------------------------------------|
E|-----------------------------------------------------------------------------------|

 Bridge x4(Come in at 3.35)
G|----9p4-------------------------------------------------------------------------|
D|--------67----------------------------------------------------------------------|
A|4~------------------------------------------------------------------------------|
E|--------------------------------------------------------------------------------|

 Outro x3
G|-------------------------------------|
D|-------------------------------------|
A|77777777-99999999-55555555-----------|
E|---------------------------55555555--|

 x1
G|-------------------------------|
D|-------------------------------|
A|55555555----------55555555-----|
E|---------55555555----------5~--|

| /  slide up
| \  slide down
| h  hammer-on
| p  pull-off
| ~  vibrato
| +  harmonic
| x  Mute note
===============================================================================
Расскажи друзьям!




Войдите, используя Ваш аккаунт:



Забыли пароль?
Зарегистрироваться

Войти с помощью:

Привет, гитарист!

Пройди супер-курс по гитаре и порази всех своей игрой!

Забрать курс!
ВАМ ПОДАРКИ ОТ ПРОЕКТА
"ГИТАРНАЯ РЕВОЛЮЦИЯ"