Gitaristu.ru
Аккорды Табулатура Начинающим Мастер-класс Софт Видео Форум Блог
Новости Анонсы Гитары Гитаристы Статьи Аватарки Минусовки
Поиск





Популярные подборы




Настройка гитары






Главная > Аккорды > C > Coldplay

Аккорды
Coldplay
-
Life In Technicolor bass (табулатура)



Подбор прислал: gitaristu.ru
-------------------------------------------------------------------------------
			     Life in Technicolor - Coldplay
-------------------------------------------------------------------------------

Tabbed By : JMDavis07
e-mail: jmdavis07@hotmail.com

Tuning: Standard
                                                            Hold that last A:
G|---------------------------------------------------------------------------|
D|---------------------------------------------------------------------------|
A|--6--7-----------6--7-----------6--7------------6--7-----------6--7--------|
E|-----0--4-2--5------0--4-2--5------0--4-2--5-------0--4-2--5------0--4-2--5|

G|---------------------------------------------------------------------------|
D|--4-4-4-4-4-4-4-----------------------------------------------------4-4-4-4|
A|----------------5-5-5-5-5-5-5-5-5------------------------------------------|
E|----------------------------------5-5-5-5-5-5-5-5-5-5-5-5-5-5-5-5-5--------|

G|---------------------------------------------------------------------------|
D|-4-4-4-----------------------------------------------------4-4-4-4-4-4-4---|
A|-------5-5-5-5-5-5-5-5-5-------------------------------------------------5-|
E|-------------------------5-5-5-5-5-5-5-5-5-5-5-5-5-5-5-5-5-----------------|

G|---------------------------------------------------------------------------|
D|---------------------------------------------------------------------------|
A|-5-5-5-5-5-5-5-5-----------------------------------7-7-7-7-7-7-7-7-7-7-7-7-|
E|-----------------5-5-5-5-5-5-5-5-5-5-5-5-5-5-5-5-5-------------------------|

G|---------------------------------------------------------------------------|
D|---------------------------------------------------------------------------|
A|-7-7-7-7-------------------------------------------------------------------|
E|---------5-5-5-5-5-5-5-5-5-5-5-5-5-5-5-5-5-5-5-5-5-5-5-7-5-5-5-5-5-5-5-5-5-|

G|---------------------------------------------------------------------------|
D|---------------------------------------------------------------------------|
A|------------4--------------------------------------------------------------|
E|-5-5-5-5-5-5-5-5-5-5-5-5-5-5-5-5-5-5-5-5-5-5-5-5-5-5-7-5-5-5-5-5-5-5-5-5-5-|

G|---------------------------------------------------------------------------|
D|---------------------------4-4-4-4-4-4-4-----------------------------------|
A|----------4------------------------------5-5-5-4-5-5-7---------------------|
E|-5-5-5-5-5-5-5-5-5-5-5-5-5-----------------------------5-5-5-5-5-5-5-5-5-5-|

G|---------------------------------------------------------------------------|
D|---------------------------------------------------------------------------|
A|-----------7-7-7-7-7-7-7-7-7-7-7-7-7-7-7-7---------------------------------|
E|-5-5-5-5-5---------------------------------5-5-5-5-5-5-5-5-5-5-5-5-5-5-5-5-|

G|---------------------------------------------------------------------------|
D|---------------------------------------------------------------------------|
A|------------5--5----5-7--4-4-4-4-4----4-4---4-4/7-7h9--------5--5----5-7--4|
E|-2-2-2-2-2--------5-----------------4-----4-----------2-2-2--------5-------|

G|---------------------------------------------------------------------------|
D|---------------------------------------------------------------------------|
A|-4-4-4-4----4-4---4-4/7-7h9--------5--5----5-7-----------------------------|
E|----------4-----4-----------2-2-2--------5------5-5-5-5-4-4-4-4-2-2-2-2/12-|

G|---------------------------------------------------------------------------|
D|---------------------------------------------------------------------------|
A|---------------------------------------------------------------------------|
E|-12-12-12-12-12-12-12-12-12-12-12-12-12-12-12-5~---------------------------|

| /  slide up
| \  slide down
| h  hammer-on
| p  pull-off
| ~  vibrato
| +  harmonic
| x  Mute note
===============================================================================
I'm fairly sure this tab is correct. If you have any problems or questions, just comment 
correct it.
Расскажи друзьям!




Войдите, используя Ваш аккаунт:



Забыли пароль?
Зарегистрироваться

Войти с помощью:

Привет, гитарист!

Пройди супер-курс по гитаре и порази всех своей игрой!

Забрать курс!
ВАМ ПОДАРКИ ОТ ПРОЕКТА
"ГИТАРНАЯ РЕВОЛЮЦИЯ"