Gitaristu.ru
Аккорды Табулатура Начинающим Мастер-класс Софт Видео Форум Блог
Новости Анонсы Гитары Гитаристы Статьи Аватарки Минусовки
Поиск





Популярные подборы




Настройка гитары






Главная > Аккорды > C > Coldplay

Аккорды
Coldplay
-
Lost bass (табулатура)



Подбор прислал: gitaristu.ru
if you have some problem with the tab or you find a mistake,if you want to talk me about this,
this is my account:

turtle_92@hotmail.it



lost coldplay

intro

verso

----------------------------------|
----------------------------------|   x 10
--h7777-33-2222-55----------------|
----------------------------------|

rit.-chorus
-----------------|          ----------------|
-----------------|    x2    ----------------|
--5-5----3--5----|          --3--------5----|
-------3---------|          ------3---------|


verso

----------------------------------|
----------------------------------|   x 4
--h7777-33-2222-55----------------|
----------------------------------|

rit.chorus

-----------------|          -----------------------------------------------|
-----------------|    x2    -----------------------------------------------|
--5-5----3--5----|          --3--------5------------5------3-------5-----5-|
-------3---------|          -------3--------------------3------------------|

verso

----------------------------------|
----------------------------------|   x 4
--h7777-33-2222-55----------------|
----------------------------------|


rit.-chorus
----------------|
----------------|    x4
---5----3--5----|
------3---------|


----------------|
----------------|
--5----3--5-----|
-----3----------|
Расскажи друзьям!




Войдите, используя Ваш аккаунт:



Забыли пароль?
Зарегистрироваться

Войти с помощью:

Привет, гитарист!

Пройди супер-курс по гитаре и порази всех своей игрой!

Забрать курс!
ВАМ ПОДАРКИ ОТ ПРОЕКТА
"ГИТАРНАЯ РЕВОЛЮЦИЯ"