Gitaristu.ru
Аккорды Табулатура Начинающим Мастер-класс Софт Видео
Новости Анонсы Гитары Гитаристы Статьи Аватарки Минусовки
Поиск



Популярные подборы




Настройка гитары






Главная > Аккорды > C > Cranberries

Аккорды
Cranberries
-
Zombie (3)

Не нашли аккорды к песне? Посмотрите на


Подбор прислал: gitaristu.ru
 *e - 1-я струна  *Em     [02200x]
  H - 2-я ------   Cadd9  [03200x]
  G - 3-я ------   G6     [3200xx]
  D - 4-я ------   D/F#   [2000xx]
  A - 5-я ------
  E - 6-я ------
 
 Вступление (Intro):

D||------2--------2--------0--------0----|
A||----2---2----3---3----2---2----0---0--| 2 раза
E||--0--------0--------3--------1--------|

 Основное (Main):

G|----------0-----0-|---------0-----0-|---------0-----0-|---------0-----0-|
D|--2-2-2-2-2-2-2-2-|-2-2-2-2-2-2-2-2-|-0-0-0-0-0-0-0-0-|-0-0-0-0-0-0-0-0-|
A|--2-2-2-2-2-2-2-2-|-3-3-3-3-3-3-3-3-|-2-2-2-2-2-2-2-2-|-0-0-0-0-0-0-0-0-| *И так всю музыку...
E|--0-0-0-0-0-0-0-0-|-0-0-0-0-0-0-0-0-|-3-3-3-3-3-3-3-3-|-1-1-1-1-1-1-1-1-|
 
 Соло (Solo):

e|--0--2--0---0--2--0---0--2-3---0--2-3---3-2------3-2------2-3-5--2-3-5-5-3-2-0--3-2-3---
H|--------------------------------------------3-0------3-0------------------------------0-
G|----------------------------------------------------------------------------------------

  -3-2-3---3-2-3-----5-5-5-5--3-2-3-0--|
  -------1-------1---------------------|
  -------------------------------------|

 Бас (Bass) I:

D|--0-2~~~~|--0------|---------|---------|
A|---------|----3~~~~|--0-2~~~~|--0~~~~~~|  *~ - длительность звука (удерживать)
E|---------|---------|---------|---------|
  
   *И так всю музыку...

 Бас (Bass) II:

G|--------0--------------0--------------0--------------0--------
D|------2----2---------2----2---------0----0---------0----0-----
A|----2--------0-0---3--------0-0---2--------0-0---0--------0-0-
E|--0--------------0--------------3--------------1--------------
   
   *И так всю музыку...


Another head hangs lowly
Child is slowly taken
And the violence caused such silence
Who are we mistaken

but you see, it's not me
it's not my family
in your head, in your head
they are fighting

With their tanks, and their bombs
and their bombs, and their guns         
In your head, in your head they are cryin'
In your head, In your head
Zombie, etc.
What's in your head in your head, in your head
Zombie, etc.


Another mother's breakin'
heart is taking over
when the violence causes silence
we must be mistaken
it's the same old theme since 1916
in your head,
in your head they're still fightin'



 Конец (The End):
 Гитара (Guitar) I:

e|--5---3--0--||
H|------------||

 Гитара (Guitar) II:
  
  Em
D|------2-----||
A|--2---------||
E|--------0---||

 *Гитара I и Гитара II - играют одновременно
 ___________________________________________________
 Если Вам что-то не понятно, пишите: KRV_007@ukr.net
 Я Вам отвечу, Роман

Другие подборы этого исполнителя

Расскажи друзьям!




Привет, гитарист!

Пройди супер-курс по гитаре и порази всех своей игрой!

Забрать курс!
ВАМ ПОДАРКИ ОТ ПРОЕКТА
"ГИТАРНАЯ РЕВОЛЮЦИЯ"