Gitaristu.ru
Аккорды Табулатура Начинающим Мастер-класс Софт Видео Форум Блог
Новости Анонсы Гитары Гитаристы Статьи Аватарки Минусовки
Поиск





Популярные подборы




Настройка гитары






Главная > Аккорды > E > Elvis Presley

Аккорды
Elvis Presley
-
A Little Less Conversation bass (табулатура)



Подбор прислал: gitaristu.ru
Little Less Conversation - Elvis Presley


Intro x4
|--------10----------------8-10--|--------10----------------8-10--|
|--------------8---8-9---10------|--------------8---8-9---10------|
|8---8---------------------------|8---8---------------------------|
|--------------------------------|--------------------------------|


|--------------------------------|--------------------------------|
|--------3-----------------1-3---|--------3-----------------1-3---|
|--------------1---1---3---------|--------------1---1---3---------|
|1---1---------------------------|1---1---------------------------|

     
|--------------------------------|--------------------------------|
|--------3-----------------1-3---|--------3-----------------1-3---|
|----------------1-1---3---------|--------------1-1-2---3---------|
|1---1---------------------------|1---1---------------------------|

       
|--------------------------------|--------------------------------|
|--------3-----------------1-3---|--------3---------------1-2-3---|
|--------------1---2---3---------|--------------1---2-3-----------|
|1---1---------------------------|1---1---------------------------|

     
|--------------------------------|--------------------------------|
|--------------------------------|----------------1-1---1-1-------|
|--------------------------------|1---1---1---1-------------------|
|1---1---1-------4-4---4-4-------|--------------------------------|

x4        
|--------------------------------|--------------------------------|
|--------------------------------|--------3-----------------1-3---|
|--------------3---3---3-3-------|------------------------3-------|
|1---1---1-----------------------|1---1---------------------------|

x2
|--------------------------------|--------------------------------|
|--------3-----------------1-3---|--------3-----------------1-3---|
|--------------1---1---3---------|--------------2---1---3---------|
|1---1---------------------------|1---1---------------------------|

|--------------------------------|--------------------------------|
|--------3-----------------1-3---|--------3-----------------1-3---|
|--------------1---1---3---------|--------------1---1---3---------|
|1---1---------------------------|1---1---------------------------|

        
|--------------------------------|--------------------------------|
|--------3-----------------1-3---|--------3-----------------1-3---|
|--------------1---1---3---------|--------------2---1---3---------|
|1---1---------------------------|1---1---------------------------|

        
|--------------------------------|--------------------------------|
|--------3-----------------1-3---|--------------------------------|
|------------3-2-1-2-----3-------|--------------------------------|
|1---1---------------------------|1---1---1-------4-4---4-4-------|

     
|--------------------------------|--------------------------------|
|----------------1-1---1-1-------|--------------------------------|
|1---1---1-----------------------|----------------3-3---3-3-------|
|--------------------------------|1---1---1-----------------------|

       
|--------------------------------|--------------------------------|
|--------------------------1-3---|--------------------------1-3---|
|------------3-2-1-1-1---3-------|------------3-2-1-1-1---3-------|
|1---1---1-----------------------|1-------1-----------------------|

|--------------------------------|----------0---------------------|
|--------------------------------|--------1-----3---1---------1---|
|----------------------------3/1h|----3-----------------3---1-----|
|1-------------------------------|--------------------------------|

      
|--------------------------------|----------0---------------------|
|--------------------------------|--------1-----3---1---------1---|
|--------------------------------|----1-3---------------3---1-----|
|1---1---1---1---1---------------|1-------------------------------|

       
|--------------------------------|--------------------------------|
|--------------------------------|--------------------------------|
|--------------------------------|--------------------------------|
|1---1---1---1---1---1---1---1---|4---4---4---4---4---4---4---4---|

      
|3---3---3---3---3---3---3---3---|5---5---5---5---5---5---5---5---|
|--------------------------------|--------------------------------|
|--------------------------------|--------------------------------|
|--------------------------------|--------------------------------|

      
|5---5---5---5---5---5---5---5---|5-------------------------------|
|--------------------------------|--------------------------------|
|--------------------------------|--------------------------------|
|--------------------------------|--------------------------------|

x2
|--------------------------------|--------------------------------|
|--------------------------1-3---|--------------------------1-3---|
|----------------------1-3-------|------------------------3-------|
|1---1---1-----------------------|1---1---1-----------------------|

|--------------------------------|--------------------------------|
|--------------------------------|----------------1-1---1-1-------|
|--------------------------------|1---1---1---1-------------------|
|1---1---1-------4-4---4-4-------|--------------------------------|

      
|--------------------------------|--------------------------------|
|--------------------------------|--------------------------1-3---|
|----------------3-3---3-3-------|----------------1-1---3---------|
|1---1---1-----------------------|1-------1-----------------------|

     
|--------------------------------|--------------------------------|
|--------3-----------------1-3---|--------3-----------------1-3---|
|----------------1-1---3---------|----------------1-1---3---------|
|1---1---------------------------|1---1---------------------------|

|--------------------------------|   
|--Tab-by-Josh-Gearey------------|
|-any-questions------------------|
|--Joshgearey8@hotmail.com-------|
Расскажи друзьям!




Войдите, используя Ваш аккаунт:



Забыли пароль?
Зарегистрироваться

Войти с помощью:

Привет, гитарист!

Пройди супер-курс по гитаре и порази всех своей игрой!

Забрать курс!
ВАМ ПОДАРКИ ОТ ПРОЕКТА
"ГИТАРНАЯ РЕВОЛЮЦИЯ"