Gitaristu.ru
Аккорды Табулатура Начинающим Мастер-класс Софт Видео Форум Блог
МАГАЗИНЧИК Новости Анонсы Гитары Гитаристы Статьи Аватарки Минусовки
Читать в твиттере RSS
Поиск


Новые комментарии



Настройка гитары

Популярные подборы





Главная > Аккорды > E > Exodus

Аккорды
Exodus
-
No Love (табулатура)



Подбор прислал: gitaristu.ru
Song: No Love
Artist: Exodus
Album: Bonded by Blood (1985)

Tuning: Standard
Copy: First

Notation Key
~: vibrato
^: bend
.: palm mute
r: release
t: trill
p: pull-off
h: hammer-on
x: ghost note
/: slide up
\: slide down

Acoustic intro
  (I can't tell if it's one guitar or two guitars, but live Gary plays it by himself)
e|------5--4--5-4--|--2--4-2--|--0--2-0--|----------|----------|--------0-----|
B|----5------------|----------|----------|--4--5-4--|--2--4-2--|--0-------0---|
G|--6---2----------|----------|----------|----------|----------|----2-----1---|
D|----2----2-------|--1-------|----------|----------|----------|------1-2-----|
A|--4--------------|----------|--4-------|--2-------|--0-------|--------------|
E|-----------------|----------|----------|----------|----------|--4-----------|

e|--0-2-0-4-2-0--|--4-5-4-7-5-4--|------2-4-2------|------------2------|----0-|
B|---------------|---------------|--4-5-------4-5--|--5-4-2-4-2---5-4--|----4-|
G|---------------|---------------|-----------------|-------------------|--4-4-|
D|---------------|--2------------|-----------------|-------------------|------|
A|--4------------|---------------|--2-----------4--|--4-2-0------------|-2-4--|
E|---------------|---------------|-----------------|-------------------|--4-5-|

e|--------------------0--|--4-5-4-7-5-4--|--5-7-5-9-7-5--|------2-4-2------|
B|--------2---------0----|---------------|---------------|--4-5-------4-5--|
G|--2-4-2---------1------|---------------|---------------|-----------------|
D|----------4-1-2--------|--2------------|--4------------|-----------------|
A|-----------------------|---------------|---------------|--2-----------4--|
E|-----------------------|---------------|---------------|-----------------|

e|------------2------|--------0--|--------------------0--|--4-5-7-7h9p7p5--|
B|--5-4-2-4-2---5-4--|------4----|--------2---------0----|-----------------|
G|-------------------|--4-4------|--2-4-2---------1------|-----------------|
D|-------------------|-----------|----------4-1-2--------|--2--------------|
A|--4-2-0------------|------2-4--|-----------------------|-----------------|
E|-------------------|--4-5------|-----------------------|-----------------|

e|--0-2-4-4h5p4p2--|----0-2-2h4p2p0------------------|--------2------|-----0--|
B|-----------------|--4-------------4-5-----4--------|--2-4-2---5-4--|------4-|
G|-----------------|---------------------------------|---------------|--4-4---|
D|-----------------|---------------------------------|---------------|--------|
A|-----------------|------------------4-5-4-2-0------|---------------|----2-4-|
E|-----------------|----------------------------4-5--|---------------|--4-5---|

e|--------------------0--|
B|--------2---------0----|
G|--2-4-2---------1------|
D|----------4-1-2--------|
A|-----------------------|
E|-----------------------|

Pickslide

Fig. 1A x4
e|-----------------------------|-------------------------------|
B|-----------------------------|-------------------------------|
G|-----------------------------|-------------------------------|
D|----------9-8-------9\-------|--------9-8-------9\-----------|
A|------8---7-6---8---7\--6-5--|----8---7-6---8---7\--1--------|
E|--0-0-6-0-----0-6-0-----4-3--|--0-6-0-----0-6-0-------3-2-3--|
    . .   .     .   .             .   .     .   .

Fig. 1B x4
e|-----------------------------------|---------------|-----------------------|
B|-----------------------------------|---------------|-----------------------|
G|-----------------------------------|---------------|-----------------------|
D|----------9-8----------------------|----------9-8--|-----------------------|
A|------8---7-6-------------1--------|------8---7-6--|----8-8-8-8-8-8-5-4-3--|
E|--0-0-6-0-----0-0-0-0-0-0---3-2-3--|--0-0-6-0------|--0-6-6-6-6-6-6-3-2-1--|
    . .   .     . . . . . .             . .   .         .

NOTE: Figure 1B is easier to play this way, and it's really the same thing in the long
run, just not how Gary and Rick actually play it.  Same thing, though.

e|-----------------------------------|---------------|-----------------------|
B|-----------------------------------|---------------|-----------------------|
G|-----------------------------------|---------------|-----------------------|
D|----------9-8----------------------|----------9-8--|----3-3-3-3-3-3--------|
A|------8---7-6-------------1--------|------8---7-6--|----1-1-1-1-1-1-5-4-3--|
E|--0-0-6-0-----0-0-0-0-0-0---3-2-3--|--0-0-6-0------|--0-------------3-2-1--|
    . .   .     . . . . . .             . .   .         .

Fig. 2A x1
e|-----------------------------------|---------------------------------|
B|-----------------------------------|---------------------------------|
G|------2---0-2---3-------2-0-2-6-5--|---------------------------------|
D|------2---0-2---3-------2-0-2-6-5--|--------3-------5-------6--5--3--|
A|--0-0---0-----0---0-0-0------------|--0-0-0-1-0-0-0-3-0-0-0-4--3--1--|
E|-----------------------------------|---------------------------------|
    . .   .     .   . . .               . . .   . . .   . . .

e|-----------------------------------|---------------------------------|
B|-----------------------------------|---------------------------------|
G|------2---0-2---3-------2-0-2-6-5--|---------------------------------|
D|------2---0-2---3-------2-0-2-6-5--|--------3-------5-------6--5--7--|
A|--0-0---0-----0---0-0-0------------|--0-0-0-1-0-0-0-3-0-0-0-4--3--5--|
E|-----------------------------------|---------------------------------|
    . .   .     .   . . .               . . .   . . .   . . .

Fig. 1A x2
e|-----------------------------|-------------------------------|
B|-----------------------------|-------------------------------|
G|-----------------------------|-------------------------------|
D|----------9-8-------9\-------|--------9-8-------9\-----------|
A|------8---7-6---8---7\--6-5--|----8---7-6---8---7\--1--------|
E|--0-0-6-0-----0-6-0-----4-3--|--0-6-0-----0-6-0-------3-2-3--|
    . .   .     .   .             .   .     .   .

Fig. 1B x4
e|-----------------------------------|---------------|-----------------------|
B|-----------------------------------|---------------|-----------------------|
G|-----------------------------------|---------------|-----------------------|
D|----------9-8----------------------|----------9-8--|-----------------------|
A|------8---7-6-------------1--------|------8---7-6--|----8-8-8-8-8-8--------|
E|--0-0-6-0-----0-0-0-0-0-0---3-2-3--|--0-0-6-0------|--0-6-6-6-6-6-6-3-2-1--|
    . .   .     . . . . . .             . .   .         .

Fig. 2B x2
e|-----------------------------------|---------------------------------|
B|-----------------------------------|---------------------------------|
G|------2---0-2---3-------2-0-2-6-5--|---------------------------------|
D|------2---0-2---3-------2-0-2-6-5--|--------3-------5-------6--5--3--|
A|--0-0---0-----0---0-0-0------------|--0-0-0-1-0-0-0-3-0-0-0-4--3--1--|
E|-----------------------------------|---------------------------------|
    . .   .     .   . . .               . . .   . . .   . . .

Fig. 3A x11
e|------------------------------|-----------------------------|
B|------------------------------|-----------------------------|
G|------------------------------|-----------------------------|
D|--5-----5-----5------6--5--3--|--------------------6--5--3--|
A|--3-333-3-333-3-333--4--3--1--|--5-----5-----5-----4--3--1--|
E|------------------------------|--3-333-3-333-3-333----------|

Fig. 3B x1
e|------------------------------|-----------------|
B|------------------------------|-----------------|
G|------------------------------|-----------------|
D|--5-----5-----5------6--5--3--|-----------------|
A|--3-333-3-333-3-333--4--3--1--|--5-----5-----5--|
E|------------------------------|--3-333-3-333-3--|

Fig. 3C x7
e|------------------------------|
B|------------------------------|
G|------------------------------|
D|--8-----8-----8------9--8--6--|
A|--6-666-6-666-6-666--7--6--4--|
E|------------------------------|

Fig. 3D x1
e|--------------------|
B|--------------------|
G|--------------------|
D|--8-----8-----8--8--|
A|--6-666-6-666-6--6--|
E|--------------------|

Fig. 4A x1
e|--------------------------|--------------------------|
B|--------------------------|--------------------------|
G|--------------------------|--------------------------|
D|--------------4--3--------|--------------6--4--------|
A|--3-----3-----2--1--2--4--|--3-----3-----4--2--2--4--|
E|--1-111-1-111-------0--2--|--1-111-1-111-------0--2--|

Fig. 4B x1
e|--------------------------|--------------------------|
B|--------------------------|--------------------------|
G|--------------------------|--------------------------|
D|--------------4--3--------|--------------6--4--6--9--|
A|--3-----3-----2--1--2--4--|--3-----3-----4--2--4--7--|
E|--1-111-1-111-------0--2--|--1-111-1-111-------------|

Fig. 5 x1
e|---------------------------------------|--------------------------|
B|---------------------------------------|--------------------------|
G|---------------------------------------|--------------------------|
D|--7-----7-----7-----7-----7-----7------|--9--7--6--7--6--4--7--6--|
A|--5-555-5-555-5-555-5-555-5-555-5-555--|--7--5--4--5--4--2--5--4--|
E|---------------------------------------|--------------------------|

e|---------------------------------------|--------------|
B|---------------------------------------|--------------|
G|---------------------------------------|--------------|
D|---------------------------------------|--6--4--6--9--|
A|--7-----7-----7-----7-----7-----7------|--4--2--4--7--|
E|--5-555-5-555-5-555-5-555-5-555-5-555--|--------------|

e|---------------------------------------|--------------------------|
B|---------------------------------------|--------------------------|
G|---------------------------------------|--------------------------|
D|--7-----7-----7-----7-----7-----7------|--9--7--6--7--6--4--7--6--|
A|--5-555-5-555-5-555-5-555-5-555-5-555--|--7--5--4--5--4--2--5--4--|
E|---------------------------------------|--------------------------|

e|---------------------------|-----------------------------------------------|
B|---------------------------|-----------------------------------------------|
G|---------------------------|-----------------------------------------------|
D|--10--8--7--8--7--5--8--7--|--5--3--2--3--2-----3--2--0-----2--0-----------|
A|---8--6--5--6--5--3--6--5--|-----------------3-----------3--------3--2--1--|
E|---------------------------|-----------------------------------------------|

Fig. 6 x10
e|---------------------------------------------------|---------------------|
B|---------------------------------------------------|---------------------|
G|---------------------------------------------------|---------------------|
D|---------------------------------------------------|--6--5--3-5----------|
A|--5-------5-------5-------5-------5-------5--------|--4--3--1-3---6-5-3--|
E|--3-3-3-3-3-3-3-3-3-3-3-3-3-3-3-3-3-3-3-3-3-3-3-3--|--------------4-3-1--|
      . . .   . . .   . . .   . . .   . . .   . . .

Fill 1 x1
e|-----|
B|-----|
G|-----|
D|--4--|
A|--4--|
E|--2--|

Fig. 1C x1
e|-----------------------------|---------------------------------|
B|-----------------------------|---------------------------------|
G|-----------------------------|---------------------------------|
D|----------9-8-------9\-------|--------9-8-------9\----------2--|
A|------8---7-6---8---7\--6-5--|----8---7-6---8---7\--1-------2--|
E|--0-0-6-0-----0-6-0-----4-3--|--0-6-0-----0-6-0-------3-2-3-0--|
    . .   .     .   .             .   .     .   .

Другие подборы этого исполнителя

Не знаете, как ставится какой-то аккорд? Просто введите название аккорда в форму ниже и нажмите кнопку "Показать аккорд"!
Расскажи
друзьям!




Войдите, используя Ваш аккаунт:



Забыли пароль?
Зарегистрироваться

Войти с помощью: