Gitaristu.ru
Аккорды Табулатура Начинающим Мастер-класс Софт Видео Форум Блог
Новости Анонсы Гитары Гитаристы Статьи Аватарки Минусовки
Поиск





Популярные подборы




Настройка гитары

Новые комментарии






Главная > Аккорды > F > Fall

Аккорды
Fall
-
Dktr faustus (бас)



Подбор прислал: gitaristu.ru



Date: Thu, 30 Oct 2003 16:54:00 -0600
From: Len Will 
Subject: f/fall/dktr_faustus.btab

The Fall - DKTR Faustus
from the album Bend Sinister, released 1986
BASS tabbed by: Elaine Len Will
semi-permanent email: dishonest_don@hotmail.com

This is in some odd time signature, but it's 
not that hard to play. It's just syncopated. 

1st verse: 
G|-------------------|
D|--0-0-0------------|
A|--------3--1-0-----|
E|---------------3---| x2

G|-----------------------|
D|--0-0-0--5--3-0-3------|
A|-----------------------|
E|-----------------------| x2

repeat, etc.

chorus: 
G|-------------------------------------------|
D|-------------------------------------------|
A|--3-3---3---3---3-3--3---3---2-2---2---2---|
E|------3---3---3----3---3---3-----2---2-----| etc. 
and then a D sometime after that.

2nd and subsequent verse:

G|------------------|
D|--5--3-0-3-0-0-0--|
A|------------------|
E|------------------|x2

G|-------------------|
D|-----------0-0-0---|
A|--3--1-0-----------|
E|---------3---------|x2

=========================================================================


Расскажи друзьям!




Войдите, используя Ваш аккаунт:



Забыли пароль?
Зарегистрироваться

Войти с помощью:

Привет, гитарист!

Пройди супер-курс по гитаре и порази всех своей игрой!

Забрать курс!
ВАМ ПОДАРКИ ОТ ПРОЕКТА
"ГИТАРНАЯ РЕВОЛЮЦИЯ"