Gitaristu.ru
Аккорды Табулатура Начинающим Мастер-класс Софт Видео Форум Блог
Новости Анонсы Гитары Гитаристы Статьи Аватарки Минусовки
Поиск





Популярные подборы




Настройка гитары

Новые комментарии






Главная > Аккорды > F > Fall

Аккорды
Fall
-
Garden (бас)



Подбор прислал: gitaristu.ru



Date: Tue, 11 Nov 2003 09:11:03 -0600
From: Len Will 
Subject: f/fall/garden.btab

The Fall - Garden
from the album Perverted By Language, released 1983 
BASS tabbed by: Elaine Len Will
semi-permanent email: dishonest_don@hotmail.com

verse: 
G|--------------------------------------|
D|--------------------------------0-----|
A|----------------------0-0-0--0----0-2-|
E|--3-3-3--0-3-3-3-3-3------------------| 

repeat, which should go without saying...

chorus:

G|------------------------------------------|
D|--5-5-5------------0----------------------|
A|---------3-3-3-3-3------------0--0-0-2-0--|
E|---------------------3-3-3-3--------------|

and sometimes:

G|---------------------------2--2-2-4-2---|
D|--5-5-5------------0-5-5-5--------------|
A|---------3-3-3-3-3----------------------|
E|----------------------------------------| 

as always, feel free to email corrections 'cause I'm sure
these aren't 100% accurate.

===============================================================


Расскажи друзьям!




Войдите, используя Ваш аккаунт:



Забыли пароль?
Зарегистрироваться

Войти с помощью:

Привет, гитарист!

Пройди супер-курс по гитаре и порази всех своей игрой!

Забрать курс!
ВАМ ПОДАРКИ ОТ ПРОЕКТА
"ГИТАРНАЯ РЕВОЛЮЦИЯ"