Gitaristu.ru
Аккорды Табулатура Начинающим Мастер-класс Софт Видео Форум Блог
Новости Анонсы Гитары Гитаристы Статьи Аватарки Минусовки
Поиск





Популярные подборы




Настройка гитары

Новые комментарии






Главная > Аккорды > F > Fall

Аккорды
Fall
-
Jawbone And The Air-rifle (табулатура)



Подбор прислал: gitaristu.ru
Band: The Fall
Song: Jawbone And The Air-rifle
Album: Hex Enduction Hour
Year: 1982


					Intro

e|--||-----------------------------------||
B|--||-----------------------------------||
G|--||*-----4-2-----4-2-----------------*||
D|-2||*-4-4-4-2-4-4-4-2-4-4-4-4-4-4-4-2-*||
A|-2||--4-4-2-0-4-4-2-0-4-4-4-4-4-4-4-2--||
E|-0||--2-2-----2-2-----2-2-2-2-2-2-2-0--||

								X4
e||-----------------------------------||
B||-----------------------------------||
G||*-----4-2-----4-2-----------------*||
D||*-4-4-4-2-4-4-4-2-4-4-4-4-4-4-4-2-*||
A||--4-4-2-0-4-4-2-0-4-4-4-4-4-4-4-2--||
E||--2-2-----2-2-----2-2-2-2-2-2-2-0--||

e|---------------------------------|
B|---------------------------------|
G|---------------------------------|
D|-7-7-7-7-7-7-7-7-7-7-7-7-7-7-7-7-|
A|-7-7-7-7-7-7-7-7-7-7-7-7-7-7-7-7-|
E|-5-5-5-5-5-5-5-5-5-5-5-5-5-5-5-5-|

e|-5-5-5-5-5-5-5-5-5-5-5-5-5-5-5---|
B|-5-5-5-5-5-5-5-5-5-5-5-5-5-5-5---|
G|-6-6-6-6-6-6-6-6-6-6-6-6-6-6-6---|
D|-7-7-7-7-7-7-7-7-7-7-7-7-7-7-7-2-|
A|-7-7-7-7-7-7-7-7-7-7-7-7-7-7-7-2-|
E|-5-5-5-5-5-5-5-5-5-5-5-5-5-5-5-0-|

  	X4
e||-----------------------------------||
B||-----------------------------------||
G||*-----4-2-----4-2-----------------*||
D||*-4-4-4-2-4-4-4-2-4-4-4-4-4-4-4-2-*||
A||--4-4-2-0-4-4-2-0-4-4-4-4-4-4-4-2--||
E||--2-2-----2-2-----2-2-2-2-2-2-2-0--||


								X3
e||----------------------------------||
B||----------------------------------||
G||*-----------------2-2------------*||
D||*---------2-2---------4-2
Расскажи друзьям!




Войдите, используя Ваш аккаунт:



Забыли пароль?
Зарегистрироваться

Войти с помощью:

Привет, гитарист!

Пройди супер-курс по гитаре и порази всех своей игрой!

Забрать курс!
ВАМ ПОДАРКИ ОТ ПРОЕКТА
"ГИТАРНАЯ РЕВОЛЮЦИЯ"