Gitaristu.ru
Аккорды Табулатура Начинающим Мастер-класс Софт Видео Форум Блог
Новости Анонсы Гитары Гитаристы Статьи Аватарки Минусовки
Поиск





Популярные подборы




Настройка гитары

Новые комментарии






Главная > Аккорды > F > Fall

Аккорды
Fall
-
Jerusalem (бас)



Подбор прислал: gitaristu.ru



Date: Tue, 11 Nov 2003 09:12:53 -0600
From: Len Will 
Subject: f/fall/jerusalem.btab

The Fall - Jerusalem
from the album I Am Kurious Oranj, released 1988
Based off of the poem by Blake.
BASS tabbed by: Elaine Len Will
semi-permanent email: dishonest_don@hotmail.com

This was the very first song I ever learned to play on
bass, so I gotta do a tab...yeah...plus, it's great
because it's mostly bass anyway 

Intro, ripped, mostly, straight outta the hymn:

G|--------------0----------------|
D|-----------0-----2--0---0------|
A|--------2-------------2--------|
E|--0--3-------------------------|

continued...

G|----------------------|
D|--2--0----------------|
A|-------2--0-0---------|
E|--------------3-3-0---|

x2

G|-------------------------|
D|-------------------------|
A|--------5--0-------------|
E|--0--3--------0--3-3--0--| 

The bass plays on every beat, too...
definitely on the open strings, at least. 

This is the entire song, except for this slight
variation during the discarded banana skin-uh rant:

G|----------|
D|----------|
A|----------|
E|--3-3--0--|

===============================================================


Расскажи друзьям!




Войдите, используя Ваш аккаунт:



Забыли пароль?
Зарегистрироваться

Войти с помощью:

Привет, гитарист!

Пройди супер-курс по гитаре и порази всех своей игрой!

Забрать курс!
ВАМ ПОДАРКИ ОТ ПРОЕКТА
"ГИТАРНАЯ РЕВОЛЮЦИЯ"