Gitaristu.ru
Аккорды Табулатура Начинающим Мастер-класс Софт Видео Форум Блог
Новости Анонсы Гитары Гитаристы Статьи Аватарки Минусовки
Поиск





Популярные подборы




Настройка гитары

Новые комментарии






Главная > Аккорды > F > Fall

Аккорды
Fall
-
Touch Sensitive (табулатура)



Подбор прислал: gitaristu.ru
----------------------------------------------------------------------------
                       Touch Sensitive - The Fall
----------------------------------------------------------------------------

Tabbed by: acoustic-fish

Tuning: EADGBe (standard)

im surprised there isnt already a tab for this song... i cant find one anywhere on the 
so i decided to give it a go...

therre are two guitar parts. im not sure which guitar plays the intro, but i guess that 
really matter. the rythm guitar is shown as chords above the tablature. strum the E5 
times followed by A5 four times.
you could substitute the power chords for the Em and A barre chords if you prefer.

intro: (second guitar plays chords)
 e|-7--7--7-------5-|-7--7--7-------5-|-7--7--7-------5-|-7--7--7-------5-|
 B|-7--7--7-------5-|-7--7--7-------5-|-7--7--7-------5-|-7--7--7-------5-|
 G|-8--8--8-------6-|-8--8--8-------6-|-8--8--8-------6-|-8--8--8-------6-|
 D|-9--9--9----0--7-|-9--9--9----0--7-|-9--9--9----0--7-|-9--9--9----0--7-|
 A|-9--9--9----0--7-|-9--9--9----0--7-|-9--9--9----0--7-|-9--9--9----0--7-|
 E|-7--7--7----0--5-|-7--7--7----0--5-|-7--7--7----0--5-|-7--7--7----0--5-|
                                                             hey!... ...hey!

    E5                          A5      E5                          A5
 e|-----------------|-----------------|-----------------|-----------------|
 B|-----------------|-----------------|-----------------|-----------------|
 G|-----------------|-----------------|-----------------|-----------------|
 D|-----------------|----7-7-7-7---5--|-----------------|----7-7-7-7---5--|
 A|-----7-7-----7-7-|-----------------|-----7-7-----7-7-|-----------------|
 E|-7-7-----7-7-----|-7---------------|-7-7-----7-7-----|-7---------------|


    E5                          A5      E5                          A5
 e|-----------------|-----------------|-----------------|-----------------|
 B|-----------------|-----------------|-----------------|-----------------|
 G|-----------------|-----------------|-----------------|-----------------|
 D|-----------------|----7-7-7-7---5--|-----------------|----7-7-7-7---5--|
 A|-----7-7-----7-7-|-----------------|-----7-7-----7-7-|-----------------|
 E|-7-7-----7-7-----|-7---------------|-7-7-----7-7-----|-7---------------|
                                                         hey!... ...hey!

    E5                          A5      E5                          A5
 e|-----------------|-----------------|-----------------|-----------------|
 B|-----------------|-----------------|-----------------|-----------------|
 G|-----------------|-----------------|-----------------|-----------------|
 D|-----------------|----7-7-7-7---5--|-----------------|----7-7-7-7---5--|
 A|-----7-7-----7-7-|-----------------|-----7-7-----7-7-|-----------------|
 E|-7-7-----7-7-----|-7---------------|-7-7-----7-7-----|-7---------------|
                                       i know...          hey!... ...hey!

    E5                          A5      E5                          A5
 e|-----------------|-----------------|-----------------|---------------7-|
 B|-----------------|-----------------|-----------------|---------------7-|
 G|-----------------|-----------------|-----------------|---------------8-|
 D|-----------------|----7-7-7-7---5--|-----------------|----7-7-7-7--5-9-|
 A|-----7-7-----7-7-|-----------------|-----7-7-----7-7-|---------------9-|
 E|-7-7-----7-7-----|-7---------------|-7-7-----7-7-----|-7-------------7-|
   i know...                        ...i know...                ... i know

verse one: the verse is mainly drums, with a few short notes:
 e|------------7----|------------7----|--------8----7---|--------10-10-8--|
 B|------------7----|------------7----|--------8----7---|--------10-10-8--|
 G|------------8----|------------8----|--------9----8---|--------11-11-9--|
 D|------------9----|------------9----|--------10---9---|--------12-12-10-|
 A|------------9----|------------9----|--------10---9---|--------12-12-10-|
 E|------------7----|------------7----|--------8----7---|--------10-10-8--|
  in the.. ...street if...   ...creep if... ...very cold you.....drunk..too

 e|-7--7--7-------5-|-7--7--7-------5-|-7--7--7-------5-|-7--7--7-------5-|
 B|-7--7--7-------5-|-7--7--7-------5-|-7--7--7-------5-|-7--7--7-------5-|
 G|-8--8--8-------6-|-8--8--8-------6-|-8--8--8-------6-|-8--8--8-------6-|
 D|-9--9--9----0--7-|-9--9--9----0--7-|-9--9--9----0--7-|-9--9--9----0--7-|
 A|-9--9--9----0--7-|-9--9--9----0--7-|-9--9--9----0--7-|-9--9--9----0--7-|
 E|-7--7--7----0--5-|-7--7--7----0--5-|-7--7--7----0--5-|-7--7--7----0--5-|
   old                they...        ...meek              i say...

 e|-7--7--7-------5-|-7--7--7-------5-|-7--7--7-------5-|-7--7--7-------5-|
 B|-7--7--7-------5-|-7--7--7-------5-|-7--7--7-------5-|-7--7--7-------5-|
 G|-8--8--8-------6-|-8--8--8-------6-|-8--8--8-------6-|-8--8--8-------6-|
 D|-9--9--9----0--7-|-9--9--9----0--7-|-9--9--9----0--7-|-9--9--9----0--7-|
 A|-9--9--9----0--7-|-9--9--9----0--7-|-9--9--9----0--7-|-9--9--9----0--7-|
 E|-7--7--7----0--5-|-7--7--7----0--5-|-7--7--7----0--5-|-7--7--7----0--5-|
...cheek                 vanity...    ...presumption...      hey... ...hey

chorus: (second guitar plays chords)
    E5                          A5      E5                          A5
 e|-----------------|-----------------|-----------------|-----------------|
 B|-----------------|-----------------|-----------------|-----------------|
 G|-----------------|-----------------|-----------------|-----------------|
 D|-----------------|----7-7-7-7---5--|-----------------|----7-7-7-7---5--|
 A|-----7-7-----7-7-|-----------------|-----7-7-----7-7-|-----------------|
 E|-7-7-----7-7-----|-7---------------|-7-7-----7-7-----|-7---------------|
     ...hard             porn shop     lately             i say hey..

    E5                          A5      E5                          A5
 e|-----------------|-----------------|-----------------|-----------------|
 B|-----------------|-----------------|-----------------|-----------------|
 G|-----------------|-----------------|-----------------|-----------------|
 D|-----------------|----7-7-7-7---5--|-----------------|----7-7-7-7---5--|
 A|-----7-7-----7-7-|-----------------|-----7-7-----7-7-|-----------------|
 E|-7-7-----7-7-----|-7---------------|-7-7-----7-7-----|-7---------------|
                         touch sensitive                     hey... ...hey

    E5                          A5      E5                          A5
 e|-----------------|-----------------|-----------------|-----------------|
 B|-----------------|-----------------|-----------------|-----------------|
 G|-----------------|-----------------|-----------------|-----------------|
 D|-----------------|----7-7-7-7---5--|-----------------|----7-7-7-7---5--|
 A|-----7-7-----7-7-|-----------------|-----7-7-----7-7-|-----------------|
 E|-7-7-----7-7-----|-7---------------|-7-7-----7-7-----|-7---------------|
    i know...      ...i know...      ...i know...      ...i know...

    E5                          A5      E5                          A5
 e|-----------------|-----------------|-----------------|---------------7-|
 B|-----------------|-----------------|-----------------|---------------7-|
 G|-----------------|-----------------|-----------------|---------------8-|
 D|-----------------|----7-7-7-7---5--|-----------------|----7-7-7-7--5-9-|
 A|-----7-7-----7-7-|-----------------|-----7-7-----7-7-|---------------9-|
 E|-7-7-----7-7-----|-7---------------|-7-7-----7-7-----|-7-------------7-|
 ...i know...      ...i know...      ...i know...      ...i know...

verse two:
 e|------------7----|------------7----|--------8----7---|---------10---8--|
 B|------------7----|------------7----|--------8----7---|---------10---8--|
 G|------------8----|------------8----|--------9----8---|---------11---9--|
 D|------------9----|------------9----|--------10---9---|---------12---10-|
 A|------------9----|------------9----|--------10---9---|---------12---10-|
 E|------------7----|------------7----|--------8----7---|---------10---8--|
and your... ...pee so you...  ...tree... ...star wars...        ...taxi

 e|-7--7--7-------5-|-7--7--7-------5-|-7--7--7-------5-|-7--7--7-------5-|
 B|-7--7--7-------5-|-7--7--7-------5-|-7--7--7-------5-|-7--7--7-------5-|
 G|-8--8--8-------6-|-8--8--8-------6-|-8--8--8-------6-|-8--8--8-------6-|
 D|-9--9--9----0--7-|-9--9--9----0--7-|-9--9--9----0--7-|-9--9--9----0--7-|
 A|-9--9--9----0--7-|-9--9--9----0--7-|-9--9--9----0--7-|-9--9--9----0--7-|
 E|-7--7--7----0--5-|-7--7--7----0--5-|-7--7--7----0--5-|-7--7--7----0--5-|
                         touch sensitive                    touch sensitive

 e|-7--7--7-------5-|-7--7--7-------5-|-7--7--7-------5-|-7--7--7-------5-|
 B|-7--7--7-------5-|-7--7--7-------5-|-7--7--7-------5-|-7--7----------5-|
 G|-8--8--8-------6-|-8--8--8-------6-|-8--8--8-------6-|-8--8--8-------6-|
 D|-9--9--9----0--7-|-9--9--9----0--7-|-9--9--9----0--7-|-9--9--9----0--7-|
 A|-9--9--9----0--7-|-9--9--9----0--7-|-9--9--9----0--7-|-9--9--9----0--7-|
 E|-7--7--7----0--5-|-7--7--7----0--5-|-7--7--7----0--5-|-7--7--7----0--5-|
                                                             hey... ...hey


outro:
    E5                          A5      E5                          A5
 e|-----------------|-----------------|-----------------|-----------------|
 B|-----------------|-----------------|-----------------|-----------------|
 G|-----------------|-----------------|-----------------|-----------------|
 D|-----------------|----7-7-7-7---5--|-----------------|----7-7-7-7---5--|
 A|-----7-7-----7-7-|-----------------|-----7-7-----7-7-|-----------------|
 E|-7-7-----7-7-----|-7---------------|-7-7-----7-7-----|-7---------------|

    E5                          A5      E5                          A5
 e|-----------------|-----------------|-----------------|-----------------|
 B|-----------------|-----------------|-----------------|-----------------|
 G|-----------------|-----------------|-----------------|-----------------|
 D|-----------------|----7-7-7-7---5--|-----------------|----7-7-7-7---5--|
 A|-----7-7-----7-7-|-----------------|-----7-7-----7-7-|-----------------|
 E|-7-7-----7-7-----|-7---------------|-7-7-----7-7-----|-7---------------|
 if... ...very cold you.....drunk..too old

    E5                          A5      E5                          A5
 e|-----------------|-----------------|-----------------|-----------------|
 B|-----------------|-----------------|-----------------|-----------------|
 G|-----------------|-----------------|-----------------|-----------------|
 D|-----------------|----7-7-7-7---5--|-----------------|----7-7-7-7---5--|
 A|-----7-7-----7-7-|-----------------|-----7-7-----7-7-|-----------------|
 E|-7-7-----7-7-----|-7---------------|-7-7-----7-7-----|-7---------------|
Repeat as necessary


enjoy!

lyrics:
============================================================================
hey hey hey

hey hey hey hey
i know, i know, i know I know
Расскажи друзьям!




Войдите, используя Ваш аккаунт:



Забыли пароль?
Зарегистрироваться

Войти с помощью:

Привет, гитарист!

Пройди супер-курс по гитаре и порази всех своей игрой!

Забрать курс!
ВАМ ПОДАРКИ ОТ ПРОЕКТА
"ГИТАРНАЯ РЕВОЛЮЦИЯ"