Gitaristu.ru
Аккорды Табулатура Начинающим Мастер-класс Софт Видео Форум Блог
МАГАЗИНЧИК Новости Анонсы Гитары Гитаристы Статьи Аватарки Минусовки
Читать в твиттере RSS
Поиск


Новые комментарии



Настройка гитары

Популярные подборы





Главная > Аккорды > F > Fall Out Boy

Аккорды
Fall Out Boy
-
I Dont Care (табулатура)



Подбор прислал: gitaristu.ru
Fall Out Boy
I Don't Care - Solo
Tabbed By davidhodgkiss@hotmail.com

this took me abit to kinda hear over the rhythm guitar, its not 100% perfect coz like i 
it was hard to hear but it works well, so enjoy.

any questions email me,

E|-------------------15-----------------------------------------| scale bit
B|-------------12-13--------------------------------------------|
G|-15-12-13-14--------------------------------------------------|
D|--------------------------------------------------------------|
A|--------------------------------------------------------------|

E|--------------------------------------------------------------|
E|-------------------15--12-141414-12-12-141414-12-12-141414-12-| get the
B|-------------12-13--------------------------------------------| rhythm
G|-15-12-13-14--------------------------------------------------|right or
D|--------------------------------------------------------------|it doesnt
A|--------------------------------------------------------------|work well
E|--------------------------------------------------------------|

E|-12-141414-12-12-141414-12-12-141414-12--12-141414-12-12-141414-12-|
B|-------------------------------------------------------------------|
G|-------------------------------------------------------------------|
D|-------------------------------------------------------------------|
A|-------------------------------------------------------------------|
E|-------------------------------------------------------------------|

E|-------------------------------------------17-----------------|
B|-9-11p9-9p11-9-12-14p12-12-14p12-15-17p15---------------------|
G|--------------------------------------------------------------|
D|--------------------------------------------------------------|
A|--------------------------------------------------------------|
E|--------------------------------------------------------------|
`
Не знаете, как ставится какой-то аккорд? Просто введите название аккорда в форму ниже и нажмите кнопку "Показать аккорд"!

Станьте соавтором сайта! Присылайте свои варианты аккордов, и мы опубликуем их на сайте.

Таблица основных аккордов
Более подробные таблицы аккордов

Настройка гитары

Расскажи
друзьям!




Войдите, используя Ваш аккаунт:



Забыли пароль?
Зарегистрироваться

Войти с помощью: