Gitaristu.ru
Аккорды Табулатура Начинающим Мастер-класс Софт Видео Форум Блог
Новости Анонсы Гитары Гитаристы Статьи Аватарки Минусовки
Поиск





Популярные подборы




Настройка гитары

Новые комментарии






Главная > Аккорды > F > Farmer Mylene

Аккорды
Farmer Mylene
-
Appelle Mon Numero



Подбор прислал: gitaristu.ru
Вступление: 
      A
E-2-0---------------2-0---------------2-0-3-----------2-0--------------14-
H-----0--------2--------0--------0--------------0-2--------0-----2sl14----
G-------------2-----------------2----------------------------------------------
D-------------------------------------------------------------------------------
A-------------------------------------------------------------------------------
E-------------------------------------------------------------------------------
A
Qui entre dans l’histoire
Hm
Entre dans le noir
A
Histoire d’y voir
       F#m
Mon plus beau geste
 
J’ai un pillow du soir
Un pillow de star
Sans pillow je n’ai
Plus l’envie d’etre

Qui entre dans l’histoire
Cache derriere un fard, noir
La peur des regards
Qui glissent et blessent

J’ai un pillow en plumes
En forme de lune
En forme de dune
Refais le geste

C
Aa, Appelle mon numero
Dm
J’humeur a zero
     C
Appelle mon numero
A#
J’ai le sang si chaud
     C
Appelle mon numero
A#
Viens dans mon sillage
Gm
Ni trop sage
C
Ni collage
Dm
Juste ce qu’il me faut

Appelle mon numero
Compose ma vie
Appelle mon numero
Fais-moi l’hallali
Appelle mon numero
Donne-moi le « la »
Lalalala
Lalalala
Am
Appelle-moi

Qui entre dans l’histoire
Entre dans le noir
Velours d’un boudoir
Et pour le reste…

J’ai un pillow duvet
Sans pilosite
Sans pillow je n’ai
Plus rien a mettre

Allegorie, viens la
Delit de l’emoi
Mon au-dela, c’est l’i…
…vresse du geste

A la folie j’ai « l’a…llo »
Qui me dit: au lit, la!
L’embellie c’est l’o…
Reiller, de reve

Aa, Appelle mon numero
J’humeur a zero
Appelle mon numero
J’ai le sang si chaud
Appelle mon numero
Viens dans mon sillage
Ni trop sage
Ni collage
Juste ce qu’il me faut

Appelle mon numero
Compose ma vie
Appelle mon numero
Fais-moi l’hallali
Appelle mon numero
Donne-moi le « la »
Lalalala
Lalalala
Appelle-moi

Проигрыш: 
      A
E-2-0---------------2-0---------------2-0-3-----------2-0--------------14-
H-----0--------2--------0--------0--------------0-2--------0-----2sl14----
G-------------2-----------------2----------------------------------------------
D-------------------------------------------------------------------------------
A-------------------------------------------------------------------------------
E-------------------------------------------------------------------------------
F#m - 4p.

Aa, Appelle mon numero
J’humeur a zero
Appelle mon numero
J’ai le sang si chaud
Appelle mon numero
Viens dans mon sillage
Ni trop sage
Ni collage
Juste ce qu’il me faut

Appelle mon numero
Compose ma vie
Appelle mon numero
Fais-moi l’hallali
Appelle mon numero
Donne-moi le « la »
Lalalala
Lalalala
Appelle-moi




Расскажи друзьям!




Войдите, используя Ваш аккаунт:



Забыли пароль?
Зарегистрироваться

Войти с помощью:

Привет, гитарист!

Пройди супер-курс по гитаре и порази всех своей игрой!

Забрать курс!
ВАМ ПОДАРКИ ОТ ПРОЕКТА
"ГИТАРНАЯ РЕВОЛЮЦИЯ"