Gitaristu.ru
Аккорды Табулатура Начинающим Мастер-класс Софт Видео Форум Блог
Новости Анонсы Гитары Гитаристы Статьи Аватарки Минусовки
Поиск





Популярные подборы




Настройка гитары

Новые комментарии






Главная > Аккорды > F > Feeder

Аккорды
Feeder
-
Buck rogers (табулатура)



Подбор прислал: gitaristu.ru



From: guy.walsh@ukonline.co.uk
From: Will James 
Subject: f/feeder/buck_rogers.tab
Date: Sat, 2 Feb 2002 00:17:08 -0000

Buck Rogers / Feeder

Intro/Verse (Clean)

E|------------------------------------------------------------------
B|------------------------------------------------------------------
G|------------------------------------------------------------------
D|------------------------------------------------------------------
A|--7----/11-11-11-11-11-11-11------6-6-6--7-7-7-7-----------------
E|--0-----0--0--0--0--0--0--0--------4-4-4--5-5-5-5-----------------


Sample Keyb bit over clean

E|-7--7--7--7--6--6--5--5-------------------------------------------
B|--5--5--5--5--5--5--5--5------------------------------------------
G|------------------------------------------------------------------
D|------------------------------------------------------------------
A|------------------------------------------------------------------
E|------------------------------------------------------------------


Pre-Chorus

E|------------------------------------------------------------------
B|------------------------------------------------------------------
G|------------------------------------------------------------------
D|--9...-----------------7...---------------------------------------
A|--9...-----------------7...---------------------------------------
E|--7...-----------------5...---------------------------------------

  ... but I dont wanna think about it any more...
  
  
E|------------------------------------------------------------------
B|------------------------------------------------------------------
G|--9...------------------------------------------------------------
D|--9...-----------9...-------------11...-------7...----------------
A|--7...-----------9...-------------11...-------7...----------------
E|-----------------7...-------------9....-------5...----------------

   gonna make it...        .. we're gonna see...end..           
   
Bridge   

E|------------------------------------------------------------------
B|------------------------------------------------------------------
G|---------------5--------------------------------------------------
D|--4..--6-7..---5--------------------------------------------------
A|--4..--6-7..---3--------------------------------------------------
E|--2..--4-5..------------------------------------------------------
   
              ..brand new car 
Post-Bridge 

E|------------------------------------|-----------------------------
B|:----------------------------------:|-----------------------------
G|------------------------------------|-----------------------------
D|------------------------------------|-----------------------------
A|:-11.-9..-6.-4..----11.9..6..7..---:|--6--(heavy build up to chorus)
E|--0..-0..-0.-0..----0..0..0..0..----|--0---------------------------
   
   (too lazy to write this out properly - listen to the song)
      

So with beginners in mind, once you've learned the different sections,
here's the structure of the song (you should be able to play using just
this):
 
Intro
Verse
Chorus
Intro
Verse
Chorus x 2
Bridge
Solo
Intro
Chorus
 
Ends with shortened verse riff.


Расскажи друзьям!




Войдите, используя Ваш аккаунт:



Забыли пароль?
Зарегистрироваться

Войти с помощью:

Привет, гитарист!

Пройди супер-курс по гитаре и порази всех своей игрой!

Забрать курс!
ВАМ ПОДАРКИ ОТ ПРОЕКТА
"ГИТАРНАЯ РЕВОЛЮЦИЯ"