Gitaristu.ru
Аккорды Табулатура Начинающим Мастер-класс Софт Видео Форум Блог
Новости Анонсы Гитары Гитаристы Статьи Аватарки Минусовки
Поиск





Популярные подборы




Настройка гитары

Новые комментарии






Главная > Аккорды > F > Feeder

Аккорды
Feeder
-
High (бас)



Подбор прислал: gitaristu.ru



Date: Sat, 14 Sep 2002 21:20:09 +0200 (CEST)
From: Jan Bjцrklund 
Subject: f/feeder/high.btab

feeder-high.btab

Basstab by Jan Bjorklund, Finland; 
jani_bjorklund@yahoo.se 
You are welcome to request for basstabs 
Bienvenidos a pedirme transcripciones para el bajo 
Fingering and positions as suggested by TablEdit. 

TablEdited by Jan Bjorklund
Tuning : E A D G 	Time Signature: 4/4

 |       |       |       |        |       |       |       |        
|--------------------------------|--------------------7---7-------|
|7-------7-----7-5-5-5---5---5---|9-------------6h7---------------|
|--------------------------------|--------------------------------|
|--------------------------------|--------------------------------|

 |       |       |       |        |       |       |       |        
|--------------------------------|--------------------7---7-------|
|7-------7-----7-5-5-5---5---5h6-|4-------4-----------------------|
|--------------------------------|--------------5h7---------------|
|--------------------------------|--------------------------------|

 |       |       |       |        |       |       |       |        
|--------------------------------|----------------7-------7-------|
|7-------7-------5---5---5---5---|9-----------7h9-----------------|
|--------------------------------|--------------------------------|
|--------------------------------|--------------------------------|

 |       |       |       |        |       |       |       |        
|--------------------------------|------------------7-7---7-------|
|7-------7-------5-------5-------|9-------------7h9-----------9---|
|--------------------------------|--------------------------------|
|--------------------------------|--------------------------------|

 |       |       |       |        |       |       |       |        
|--------------------------------|--------------------7-------7---|
|7-------7-----------5-------5---|9-------9-----------------------|
|--------------------------------|--------------------------------|
|--------------------------------|--------------------------------|

 |       |       |       |        |       |       |       |        
|--------------------------------|----------------7---7---7---7---|
|7-------7-------5---5---5---5---|9-------9-----------------------|
|--------------------------------|--------------------------------|
|--------------------------------|--------------------------------|

 |       |       |       |        |       |       |       |        
|----------------7---7---7---7---|----------------7---7---7---7---|
|7-------7-----------------------|9---9---9---9-------------------|
|--------------------------------|--------------------------------|
|--------------------------------|--------------------------------|

 |       |       |       |        |       |       |       |        
|----------------7---7---7---7---|----------------7---7---7---6---|
|7-------7-----------------------|9---9---9---9-------------------|
|--------------------------------|--------------------------------|
|--------------------------------|--------------------------------|

 |       |       |       |        |       |       |       |        
|----------------7---7---7---7---|----------------7---7---7---6---|
|7-------------------------------|9---9---9---9-------------------|
|--------------------------------|--------------------------------|
|--------------------------------|--------------------------------|

 |       |       |       |        |       |       |       |        
|----------------7---7---7-------|----------------7---7---6-------|
|7-------------------------------|9---9---9---9-------------------|
|--------------------------------|--------------------------------|
|--------------------------------|--------------------------------|

 |       |       |       |        |       |       |       |        
|----------------7---7-------7---|4-------------------------------|
|7-------------------------------|--------------------------------|
|------------------------5-------|----------------5---5---4---5---|
|--------------------------------|--------------------------------|

 |       |       |       |        
|--------------------7-------7---|
|7-------7-----------------------|
|----------------5-------5-------|
|--------------------------------|


Created with TablEdit http://www.tabledit.com/


Расскажи друзьям!




Войдите, используя Ваш аккаунт:



Забыли пароль?
Зарегистрироваться

Войти с помощью:

Привет, гитарист!

Пройди супер-курс по гитаре и порази всех своей игрой!

Забрать курс!
ВАМ ПОДАРКИ ОТ ПРОЕКТА
"ГИТАРНАЯ РЕВОЛЮЦИЯ"