Gitaristu.ru
Аккорды Табулатура Начинающим Мастер-класс Софт Видео Форум Блог
Новости Анонсы Гитары Гитаристы Статьи Аватарки Минусовки
Поиск





Популярные подборы




Настройка гитары

Новые комментарии






Главная > Аккорды > F > Feeder

Аккорды
Feeder
-
High (табулатура)



Подбор прислал: gitaristu.ru



Date: Sun, 4 Jun 2000 09:50:54 -0400
From: Zerogish@aol.com
Subject: f/feeder/high.tab

Band:           Feeder
Album:      Polythene
Song:           High
Guitar Tab: Matthieu Alexander Evans (zerogish@aol.com)
Notes:      Standard Tuning
                Listen to the song whilst playing Guitar 1 to get               
the rhythm right.
                I am not sure about Guitar 3, so Corrections or                 
Comments are welcome.

Guitar 1: Acoustic Guitar with Capo on 2nd Fret.

|-------3-----------0-------0-----------0---|
|-------3-----------3-------3-----------3---|
|---0---0---0---0---0---2---2---2---0---0---|
|---0---0---0---2---2---2---2---2---2---2---|
|---2---2---2---3---3---0---0---0---3---3---|
|---3---3---3-------------------------------|

Guitar 2: Clean Electric Guitar.

|--------------------------------------------------------|
|--------------------------------------------------------|
|---------14----------14----------14-------------14------|
|------14----14----16----16----16----16-------16----16---|
|---12----------17----------14----------16h17------------|
|--------------------------------------------------------|

The above sounds perfect, but when you play standing up the guitars body 
gets in the way. So I suggest playing it like below. But Its whatever feels 
better for you.

|--------------------------------------------------------|
|-------10---------10---------10-------------10----------|
|-----9----9----11----11---11----11-------11----11-------|
|---7--------12----------9----------11h12----------------|
|--------------------------------------------------------|
|--------------------------------------------------------|

Guitar 3: Clean Electric Guitar.

|--------------------------------------------------------|
|--------------------------------------------------------|
|--------------------------------------------------------|
|--------------------------------------------------------|
|---0---7--4h5-------------5-----0---7--4h5------------5-|
|------------------7----------------------------7--------|

Chorus: Distorted Electric Guitar.

|---------------------------------------------|
|---------------------------------------------|
|--------------7--7--7-x------------7--7--7---|
|---7---7--7-x-7--7--7-x-9---9--9-x-7--7--7---|
|---7---7--7-x-5--5--5-x-9---9--9-x-5--5--5---|
|---5---5--5-x-----------7---7--7-x-----------|

Bridge, Climbing up..: Distorted Electric Guitar.

|-------------------------------------------------------------------|
|-------------------------------------------------------------------|
|-----------------------------------7---7--7-7--7---7---7--7-7--7---|
|---9---9--9-9--9---9---9--9-9--9---7---7--7-7--7---7---7--7-7--7---|
|---9---9--9-9--9---9---9--9-9--9---5---5--5-5--5---5---5--5-5--5---|
|---7---7--7-7--7---7---7--7-7--7-----------------------------------|


Расскажи друзьям!




Войдите, используя Ваш аккаунт:



Забыли пароль?
Зарегистрироваться

Войти с помощью:

Привет, гитарист!

Пройди супер-курс по гитаре и порази всех своей игрой!

Забрать курс!
ВАМ ПОДАРКИ ОТ ПРОЕКТА
"ГИТАРНАЯ РЕВОЛЮЦИЯ"