Gitaristu.ru
Аккорды Табулатура Начинающим Мастер-класс Софт Видео Форум Блог
Новости Анонсы Гитары Гитаристы Статьи Аватарки Минусовки
Поиск





Популярные подборы




Настройка гитары

Новые комментарии






Главная > Аккорды > F > Feeder

Аккорды
Feeder
-
Itsumo bass (табулатура)



Подбор прислал: gitaristu.ru
As no one seems to play Silent Cry, I've tried to do it myself...
In order to write this tab i've count each line as two "tenses" (don't sure of the word, 
"mesures" in french).

So all the notes are eight per "tenses" exept the "12(b)" (b as black, four notes per 
and the note on the chorus.

Actually, I would write a line with symbols but I don't achieve to translate the chorus, 
listen to the track for the tempo.

verse
G---------------------------------------------------------------------------------|
D---------------------------------------------------------------------------------|
A---------------------------------------------------------------------------------|
E-15-15-15-15-15-15-15-15-12-12-12-12-12-12-12-12---------------------------------|

G--------------------------------------------------|
D--------------------------------------------------|
A--------------------------------------------------|
E-13-13-13-13-13-13-13-13-12-12-12-12-12-12-12-12--|                     X2

Pre-chorus
G-----------------------------------------------------------------------------------|
D-----------------------------------------------------------------------------------|
A-----------------------------------------------------------------------------------|
E-13-13-13-13-13-13-13-13-l3-13-13-13-13-13-13-13-----------------------------------|

G----------------------------------------------------------------------------------|
D----------------------------------------------------------------------------------|
A-12-12-12-12-12-12-12-12----------------------------------------------------------|
E---------------------------------------8-8-8 8-8-8-8-8----------------------------|

G----------------------------------------------------------------------------------|
D----------------------------------------------------------------------------------|
A----------------------------------------------------------------------------------|
E-13-13-13-13-13-13-13-13-13-13-13-13-13-13-13-13----------------------------------|

G----------------------------------------------------------------------------------|
D----------------------------------------------------------------------------------|
A-12-12-12-12-12-12-12-12-12-12-12-12-12-12----------------------------------------|
E----------------------------------------------------------------12(b)-------------|

chorus
G----------------------------------------------------------------------------------|
D----------------------------------------------------------------------------------|
A---------------------------------------12-12-12------12---------------------------|
E-8-8-8------8---------------------------------------------------------------------|

G-----------------------------------------------------------------------------------|
D-----------------------------------------------------------------------------------|
A-----------------------------------------------------------------------------------|
E-12-12-12------12----------------12-12-12---------3--------------------------------|

G-----------------------------------------------------------------------------------|
D-----------------------------------------------------------------------------------|
A---------------------------------------l12-12-12------12---------------------------|
E-8-8-8------8----------------------------------------------------------------------|

G------------------------------------------------------------------------------------|
D------------------------------------------------------------------------------------|
A------------------------------------------------------------------------------------|
E-12-12-12------12-----------------13-13-13----13------------------------------------|

post-chorus
G--------------------------------------------------------------------|
D--------------------------------------------------------------------|
A--------------------------------------------------------------------|
E---8-8-8-8-8-8-8-8-----------------12-12-8-8-8-8-8-8-8-8---------3--|        X2
Расскажи друзьям!




Войдите, используя Ваш аккаунт:



Забыли пароль?
Зарегистрироваться

Войти с помощью:

Привет, гитарист!

Пройди супер-курс по гитаре и порази всех своей игрой!

Забрать курс!
ВАМ ПОДАРКИ ОТ ПРОЕКТА
"ГИТАРНАЯ РЕВОЛЮЦИЯ"