Gitaristu.ru
Аккорды Табулатура Начинающим Мастер-класс Софт Видео Форум Блог
Новости Анонсы Гитары Гитаристы Статьи Аватарки Минусовки
Поиск





Популярные подборы




Настройка гитары

Новые комментарии






Главная > Аккорды > F > Feeder

Аккорды
Feeder
-
Just a day (табулатура)



Подбор прислал: gitaristu.ru



From: Gareth Brown 
Subject: f/feeder/just_a_day.tab
Date: Tue, 05 Mar 2002 19:36:46 +0000

This was feeder's release just before their drummer John Lee died.
This may need tweakin but listen to the song itself for tempo and it should 
be about right.

Verse #1
Clean
----------------------------------------------------------------------
-7-7-5-5--7-7-5-0-7-7-5-5-9-7-5-7-5-2---7-7-7-7-5-0-------------------
----------------------------------------------------------------------
----------------------------------------------------------------------
----------------------------------------------------------------------
----------------------------------------------------------------------


Verse #2
clean
----------------------------------------------------------------------
7-7-7-5-5-7-7-7-7-5-0--7-7-7-5-5-9-9-7-5-7-5-2--7-7-7-7-5-0-----------
----------------------------------------------------------------------
----------------------------------------------------------------------
----------------------------------------------------------------------
----------------------------------------------------------------------

Verse #3
Clean
----------------------------------------------------------------------
-5-5-5-5-4-2-0-0--5-5-5-5-4-2-0--5-4-2-0-4-5-5-7-7-9------------------
----------------------------------------------------------------------
----------------------------------------------------------------------
----------------------------------------------------------------------
----------------------------------------------------------------------

Verse #4
Clean
----------------------------------------------------------------------
5--7--9--2--6-6-6-4-4-6-6-6-4-4-9-9-9-9-9-9-7-7--9-7-7-5---5-10-9-5---
----------------------------------------------------------------------
----------------------------------------------------------------------
----------------------------------------------------------------------
----------------------------------------------------------------------

Verse #5
Clean
----------------------------------------------------------------------
5--7--9--10--9-9-9-9-9-9-7-7---9-7-7-5--------------------------------
----------------------------------------------------------------------
----------------------------------------------------------------------
----------------------------------------------------------------------
----------------------------------------------------------------------

Final
Clean
----------------------------------------------------------------------
7-7-5-5--9-7-5-5--7-7-5-5---9-7-5--2----------------------------------
----------------------------------------------------------------------
----------------------------------------------------------------------
----------------------------------------------------------------------
----------------------------------------------------------------------
Any problems, let me know, i'll c if i can rectify them
my e-mail is brownieman182@hotmail.com


Расскажи друзьям!




Войдите, используя Ваш аккаунт:



Забыли пароль?
Зарегистрироваться

Войти с помощью:

Привет, гитарист!

Пройди супер-курс по гитаре и порази всех своей игрой!

Забрать курс!
ВАМ ПОДАРКИ ОТ ПРОЕКТА
"ГИТАРНАЯ РЕВОЛЮЦИЯ"