Gitaristu.ru
Аккорды Табулатура Начинающим Мастер-класс Софт Видео Форум Блог
Новости Анонсы Гитары Гитаристы Статьи Аватарки Минусовки
Поиск





Популярные подборы




Настройка гитары

Новые комментарии






Главная > Аккорды > F > Feeder

Аккорды
Feeder
-
Just the way im feeling (аккорды)



Подбор прислал: gitaristu.ru



Date: Wed, 19 Feb 2003 17:47:49 EST
From: Pschomunchkin@aol.com
Subject: f/feeder/just_the_way_im_feeling.crd

This is the song how i play it, sounds right to me you'll have to 
listen to the song to get the timing right but good luck and havng fun 
playin,
any changes email me.


Intro/Verse Chords

E¦----------------
B¦----3---3---3---
G¦----2---2-------
D¦----X---2---0---
A¦----2---0---2---
E¦------------3---

Pre-Chorus Chords

E¦----------------------------
B¦----------------------------
G¦------------4---------------
D¦----4---5---4---5---4---5---
A¦----4---5---2---5---4---5---
E¦----2---3-------3---2---3---

Chorus Chords

E¦------------------------------------
B¦--------------------------------3---
G¦----2---4-----------2---4-------2---   x2
D¦----2---4---0---4---2---4---0---0---
A¦----0---2---2---4---4---2---2-------
E¦------------3---2-----------3-------

Bridge Chords

E|------------------------------------------------------------------- 
B|------------------------------------------------------------------- 
G|--4-4-4-4-2-2-2-2-----------------2-2-2-2-2---4-------------------- 
D|--4-4-4-4-2-2-2-2-5-5-5-5-4-4-4-4-2-2-2-2-2---4---5-5-5-5-5-5-5-5-- 
A|--2-2-2-2-0-0-0-0-5-5-5-5-4-4-4-4-0-0-0-0-0---2---5-5-5-5-5-5-5-5-- 
E|------------------3-3-3-3-2-2-2-2-----------------3-3-3-3-3-3-3-3--
 
E|------------------------------------------------------------------- 
B|------------------------------------------------------------------- 
G|--4-4-4-4-2-2-2-2-------------------------------------------------- 
D|--4-4-4-4-2-2-2-2-5-5-5-5-4-4-4-4-2-2-2-2-2---4---5-5-5-5-5-5-5-5-- 
A|--2-2-2-2-0-0-0-0-5-5-5-5-4-4-4-4-2-2-2-2-2---4---5-5-5-5-5-5-5-5-- 
E|------------------3-3-3-3-2-2-2-2-0-0-0-0-0---2---3-3-3-3-3-3-3-3--
 
E|---------------------------- 
B|---------------------------- 
G|--2-2-2-2-2---4------------- 
D|--2-2-2-2-2---4---5---------
A|--0-0-0-0-0---2---5---------
E|------------------3---------


Расскажи друзьям!




Войдите, используя Ваш аккаунт:



Забыли пароль?
Зарегистрироваться

Войти с помощью:

Привет, гитарист!

Пройди супер-курс по гитаре и порази всех своей игрой!

Забрать курс!
ВАМ ПОДАРКИ ОТ ПРОЕКТА
"ГИТАРНАЯ РЕВОЛЮЦИЯ"