Gitaristu.ru
Аккорды Табулатура Начинающим Мастер-класс Софт Видео Форум Блог
Новости Анонсы Гитары Гитаристы Статьи Аватарки Минусовки
Поиск





Популярные подборы




Настройка гитары

Новые комментарии






Главная > Аккорды > F > Feeder

Аккорды
Feeder
-
Just the way im feeling (бас)



Подбор прислал: gitaristu.ru



Date: Mon, 13 Jan 2003 20:16:48 +0000
From: Ben Johnson 
Subject: f/feeder/just_the_way_im_feeling.btab

Band - Feeder
Song - Just The Way I'm Feeling
Album - Comfort In Sound

tabbed by - ben johnson

Verse  					    6x
|-------------------------------------------|
|-------16--------14-16-------14--------12--|
|-14-14-----14-14-------12-12-----10-10-----|
|-------------------------------------------|


Pre-chorus
|------------------------------------------------------------------------------|
|------------------------------------------------------------------------------|
|-------------------------------2-2-2-2-2-2-2-2--------------------------------|
|2-2-2-2-2-2-2-2-3-3-3-3-3-3-3-3---------------3-3-3-3-3-3-3-3-2-2-2-2-2-2-2-2-3


Chorus                                                              2x
|-------------------------------------------------------------------|
|-------------------------------------------------------------------|
|-0-0-0-0-2-2-2-2-----------------0-0-0-0-2-2-2-2---------5-5-5-5---|
|-----------------3-3-3-3-2-2-2-2-----------------3-3-3-3-----------|


Verse					 6x
|----------------------------------------|
|-------16-------14-16-------14-------12-|
|-14-14----14-14-------12-12----10-10----|
|----------------------------------------|


Pre-chorus
|----------------------------------------------------------|
|----------------------------------------------------------|
|---------------------------------2-2-2-2-2-2-2-2----------|
|-2-2-2-2-2-2-2-2-3-3-3-3-3-3-3-3-----------------3--------|


Chorus                                                            2x
|-----------------------------------------------------------------|
|-----------------------------------------------------------------|
|-0-0-0-0-2-2-2-2-----------------0-0-0-0-2-2-2-2---------5-5-5-5-|
|-----------------3-3-3-3-2-2-2-2-----------------3-3-3-3---------|

|---------------------------------|
|---------------------------------|
|-0-0-0-0-2-2-2-2-----------------|
|-----------------3-3-3-3-2-2-2-2-|


Bridge
|----------------------------------------------------------------|
|----------------------------------------------------------------|
|-2-2-2-2-0-0-0-0-----------------0-0-0-0-0-2--------------------|
|-----------------3-3-3-3-2-2-2-2--------------3-3-3-3-3-3-3-3-3-|

|----------------------------------------------------------------|
|----------------------------------------------------------------|
|-2-2-2-2-0-0-0-0------------------------------------------------|
|-----------------3-3-3-3-2-2-2-2-0-0-0-0-0-2--3-3-3-3-3-3-3-3-3-|

|-----------------------|
|-----------------------|
|-0-0-0-0-0-2-----------|
|--------------3--------|


Final chorus							  3x
|-----------------------------------------------------------------|
|-----------------------------------------------------------------|
|-0-0-0-0-2-2-2-2-----------------0-0-0-0-2-2-2-2---------5-5-5-5-|
|-----------------3-3-3-3-2-2-2-2-----------------3-3-3-3---------|


Расскажи друзьям!




Войдите, используя Ваш аккаунт:



Забыли пароль?
Зарегистрироваться

Войти с помощью:

Привет, гитарист!

Пройди супер-курс по гитаре и порази всех своей игрой!

Забрать курс!
ВАМ ПОДАРКИ ОТ ПРОЕКТА
"ГИТАРНАЯ РЕВОЛЮЦИЯ"