Gitaristu.ru
Аккорды Табулатура Начинающим Мастер-класс Софт Видео Форум Блог
Новости Анонсы Гитары Гитаристы Статьи Аватарки Минусовки
Поиск





Популярные подборы




Настройка гитары

Новые комментарии






Главная > Аккорды > F > Feeder

Аккорды
Feeder
-
Paperfaces bass (табулатура)



Подбор прислал: gitaristu.ru
One of their best slower songs

Verse
G|---------------------------------------|
D|----------5-5-5-5-5-3-3-3-3-3----------|
A|6-6-6-6-6---------------------3-3-3-3-3|
E|---------------------------------------|

Chorus
G|-------------------------------------------------------------|
D|------------------------------5-5-5-5-5-5-5-5----------------|
A|6-6-6-6-6-6-6-3-3-3-3-3-3-3-3-----------------1-1-1-1-1-1-1-1|
E|-------------------------------------------------------------|

G|---------------------------------------------------------------|
D|---------------------------------------------------------------|
A|6-6-6-6-6-6-6-6-3-3-3-3-3-3-3-3--------------------------------|
E|--------------------------------3-3-3-3-3-3-3-3-6-6-6-6-6-6-6-6|

Bridge
G|------------------------------------------------|
D|3-3-3-3-3-3-3-----------------------------------|
A|--------------3-3-3-3-3-3-----------------------|
E|--------------------------6-6-6-66-6-6-6-6-66-6-|

G|------------------------------------------------|
D|3-3-3-3-3-3---------------8-8-8-88-8-8-8-8-88-8-|
A|------------3-3-3-3-3-3-3-----------------------|
E|------------------------------------------------|

After this bit, play the chorus 

Verse, then chorus until end

Enjoy!!!!!
Расскажи друзьям!




Войдите, используя Ваш аккаунт:



Забыли пароль?
Зарегистрироваться

Войти с помощью:

Привет, гитарист!

Пройди супер-курс по гитаре и порази всех своей игрой!

Забрать курс!
ВАМ ПОДАРКИ ОТ ПРОЕКТА
"ГИТАРНАЯ РЕВОЛЮЦИЯ"