Gitaristu.ru
Аккорды Табулатура Начинающим Мастер-класс Софт Видео Форум Блог
Новости Анонсы Гитары Гитаристы Статьи Аватарки Минусовки
Поиск





Популярные подборы




Настройка гитары

Новые комментарии






Главная > Аккорды > F > Feeder

Аккорды
Feeder
-
Radioman bass (табулатура)



Подбор прислал: gitaristu.ru
Chorus
G|-----------------------------------------------------------|
D|----------------------------------------------------555545-|
A|5-5-5-5---------3-3-3-3---------5-5-5-5---------3-3-------5|
E|--------5-5-5-5---------3-3-3-3---------5-5-5-5------------|

G|-----------------------------------------------------------|
D|----------------------------------------------------555----|
A|5-5-5-5---------3-3-3-3---------5-5-5-5---------3-3----232-|
E|--------5-5-5-5---------3-3-3-3---------5-5-5-5-----------3|

There is no bass in the song apart from the chorus.
Not my fave Feeder song, but there wasnt a bass tab last time I looked
Расскажи друзьям!




Войдите, используя Ваш аккаунт:



Забыли пароль?
Зарегистрироваться

Войти с помощью:

Привет, гитарист!

Пройди супер-курс по гитаре и порази всех своей игрой!

Забрать курс!
ВАМ ПОДАРКИ ОТ ПРОЕКТА
"ГИТАРНАЯ РЕВОЛЮЦИЯ"