Gitaristu.ru
Аккорды Табулатура Начинающим Мастер-класс Софт Видео Форум Блог
Новости Анонсы Гитары Гитаристы Статьи Аватарки Минусовки
Поиск





Популярные подборы




Настройка гитары

Новые комментарии






Главная > Аккорды > F > Feeder

Аккорды
Feeder
-
Save Us bass (табулатура)



Подбор прислал: gitaristu.ru
Song: Save us
Artist: Feeder
Tuning: Standard

Really easy to play, just a little bit of variation in the plucking of Verse 2 and the 
I'm at mouldysandwich@hotmail.co.uk for comments/corrections

Intro:
No bass


Verse 1:
|--------------------------------------------------------|
|--------------------------------------------------------|
|--5/12--12--12--12--12--12--12--12\9--9---9--9\5--5--5--| x4
|--------------------------------------------------------|


Chorus:
|-----------------------------------------------|
|-----------------------------------------------|
|--5\0--0--0--0--0--0--0--0/9--9--9--9\5--5--5--| x3
|-----------------------------------------------|

|--------------------------------------------------|
|--------------------------------------------------|
|--5\0--0--0--0--0--0--0--0/9--9--9--9/12--12--12--|
|--------------------------------------------------|


Verse 2:
|------------------------------------------------------------|
|------------------------------------------------------------|
|--5/12--12--12----12-12--12--12----12\9--9--9----9\5--5--5--| x4
|------------------------------------------------------------|


Chorus:
|-----------------------------------------------|
|-----------------------------------------------|
|--5\0--0--0--0--0--0--0--0/9--9--9--9\5--5--5--| x3
|-----------------------------------------------|

|------------------------------------------------------|
|------------------------------------------------------|
|--5\0--0--0--0--0--0--0--0/9--9--9--9/12--12--12--12--| x2
|------------------------------------------------------|


Solo:
|-----------------------------------------------------|
|-----------------------------------------------------|
|--12--12--12--12--12--12--12--12\9--9--9--9\5--5--5--|
|-----------------------------------------------------|

|----------------------------------------------------------|
|----------------------------------------------------------|
|--5/12--12--12--12--12--12--12--12\9--9--9--9/17--17--17--|
|----------------------------------------------------------|

|--------------------------------------------------------|
|--------------------------------------------------------|
|--17/12--12--12--12--12--12--12--12\9--9--9--9\5--5--5--|
|--------------------------------------------------------|

|----------------------------------------------------------|
|----------------------------------------------------------|
|--5/12--12--12--12--12--12--12--12\9--9--9--9/17--17--17--|
|----------------------------------------------------------|


Bridge:
|---------------------------------------------------------|
|---------------------------------------------------------|
|--17/12--12--12--12--12--12--12--12\9--9---9--9\5--5--5--|
|---------------------------------------------------------|

|--------------------------------------------------------|
|--------------------------------------------------------|
|--5/12--12--12--12--12--12--12--12\9--9---9--9\5--5--5--| x3
|--------------------------------------------------------|


Verse 3:
|--------------------------------------------------------|
|--------------------------------------------------------|
|--5/12--12--12--12--12--12--12--12\9--9---9--9\5--5--5--| x4
|--------------------------------------------------------|


Chorus:
|-----------------------------------------------|
|-----------------------------------------------|
|--5\0--0--0--0--0--0--0--0/9--9--9--9\5--5--5--| x3
|-----------------------------------------------|

|--------------------------------------------------|
|--------------------------------------------------|
|--5\0--0--0--0--0--0--0--0/9--9--9--9/12--12--12--|
|--------------------------------------------------|

|-----------------------------------------------|
|-----------------------------------------------|
|--5\0--0--0--0--0--0--0--0/9--9--9--9\5--5--5--| x3
|-----------------------------------------------|

|--------------------------------------------------|
|--------------------------------------------------|
|--5\0--0--0--0--0--0--0--0/9--9--9--9/12--12--12--| x2
|--------------------------------------------------|


Outro:
|--------------------------------------------------------------|
|--------------------------------------------------------------|
|--12-12--12--12----12-12--12--12----12\9--9---9----9\5--5--5--|
|--------------------------------------------------------------|

|----------------------------------------------------------------|
|----------------------------------------------------------------|
|--5/12--12--12----12-12--12--12----12\9--9---9----9/17--17--17--|
|----------------------------------------------------------------|

|--------------------------------------------------------------|
|--------------------------------------------------------------|
|--17/12--12--12----12-12--12--12----12\9--9---9----9\5--5--5--|
|--------------------------------------------------------------|

|----------------------------------------------------------------------|
|----------------------------------------------------------------------|
|--5/12--12--12----12-12--12--12----12\9--9---9----9/17--17--17----12--|
|----------------------------------------------------------------------|
Расскажи друзьям!




Войдите, используя Ваш аккаунт:



Забыли пароль?
Зарегистрироваться

Войти с помощью:

Привет, гитарист!

Пройди супер-курс по гитаре и порази всех своей игрой!

Забрать курс!
ВАМ ПОДАРКИ ОТ ПРОЕКТА
"ГИТАРНАЯ РЕВОЛЮЦИЯ"