Gitaristu.ru
Аккорды Табулатура Начинающим Мастер-класс Софт Видео Форум Блог
Новости Анонсы Гитары Гитаристы Статьи Аватарки Минусовки
Поиск





Популярные подборы




Настройка гитары

Новые комментарии






Главная > Аккорды > F > Feeder

Аккорды
Feeder
-
Seven days in the sun (табулатура)



Подбор прислал: gitaristu.ru



Date: Wed, 17 Sep 2003 11:58:49 +0100
From: Harry 
Subject: f/feeder/seven_days_in_the_sun.tab

Feeder - Seven Days in the Sun

Original Tab: Steve Ross (originality99@hotmail.com)
This Version: Harry (tab@electricweb.org.uk)

Steve got it all generally right,  I've sorted out the timing and strumming
patterns, and rewritten the second guitar part.

Intro

e |-3---3---3---2---|-2---2-----------|-----0---0---0-0-|-3---3---2---0---|
B |-0---0---0---3---|-3---3-----------|-----2---2---2-2-|-5---5---4---2---|
G |-0---0---0---2---|-2---2-----------|-----2---2---2-2-|-5---5---4---2---|
D |-0---0---0---0---|-0---0-----------|-----2---2---2-2-|-5---5---4---2---|
A |-2---2---2-------|-----------------|-----0---0---0-0-|-3---3---2---0---|
E |-3---3---3-------|-----------------|-----------------|-----------------|

e |-3---3---3---2---|-2---2-----------|-----0---0---0-0-|-3---3---3-------|
B |-0---0---0---3---|-3---3-----------|-----2---2---2-2-|-5---5---5-------|
G |-0---0---0---2---|-2---2-----------|-----2---2---2-2-|-5---5---5-------|
D |-0---0---0---0---|-0---0-----------|-----2---2---2-2-|-5---5---5-------|
A |-2---2---2-------|-----------------|-----0---0---0-0-|-3---3---3-------|
E |-3---3---3-------|-----------------|-----------------|-----------------|

Verse A

e |-3---3---3---3-3-|-2---2---2---2-2-|-0---0---0---0-0-|-0---0---0---0-0-|
B |-0---0---0---0-0-|-3---3---3---3-3-|-2---2---2---2-2-|-1---1---1---1-1-|
G |-0---0---0---0-0-|-2---2---2---2-2-|-2---2---2---2-2-|-0---0---0---0-0-|
D |-0---0---0---0-0-|-0---0---0---0-0-|-2---2---2---2-2-|-2---2---2---2-2-|
A |-2---2---2---2-2-|-----------------|-0---0---0---0-0-|-3---3---3---3-3-|
E |-3---3---3---3-3-|-----------------|-----------------|-----------------|

Verse B

e |-7-------7-------|-7-------7-------|-7-------7-------|-7-------7-------|
B |-----8-------8---|-----8-------8---|-----8-------8---|-----8-------8---|
G |-----------------|-----------------|-----------------|-----------------|
D |-----------------|-----------------|-----------------|-----------------|
A |-----------------|-----------------|-----------------|-----------------|
E |-----------------|-----------------|-----------------|-----------------|


Pre-Chorus

e |-------------0---|-----------------|-----------------|-----------------|
B |---------2-------|-----2-------2---|-----------------|-----------------|
G |-----2-----------|-----------------|-----------------|-----------------|
D |-2---------------|---------2-------|-----------------|-----------------|
A |-----------------|-----------------|-----------------|-----------------|
E |-----------------|-----------------|-----------------|-----------------|

Chorus

e |-3---3---3---3---|-2---2---2---2-2-|-0-0-0---0---0-0-|-0-0-0---0---0---|
B |-0---0---0---0---|-3---3---3---3-3-|-2-2-2---2---2-2-|-1-1-1---1---1---|
G |-0---0---0---0---|-2---2---2---2-2-|-2-2-2---2---2-2-|-0-0-0---0---0---|
D |-0---0---0---0---|-0---0---0---0-0-|-2-2-2---2---2-2-|-2-2-2---2---2---|
A |-2---2---2---2---|-----------------|-0-0-0---0---0-0-|-3-3-3---3---3---|
E |-3---3---3---3---|-----------------|-----------------|-----------------|

Post-Chorus A

e |-3---3---3---3---|-2---2---2---2---|-0---0---0---0---|-0---0---0---0---|
B |-0---0---0---0---|-3---3---3---3---|-2---2---2---2---|-1---1---1---1---|
G |-0---0---0---0---|-2---2---2---2---|-2---2---2---2---|-0---0---0---0---|
D |-0---0---0---0---|-0---0---0---0---|-2---2---2---2---|-2---2---2---2---|
A |-2---2---2---2---|-----------------|-0---0---0---0---|-3---3---3---3---|
E |-3---3---3---3---|-----------------|-----------------|-----------------|

Post-Chorus B

e |---------7---7---|-7---7---7---7---|-7---7---8---8---|-8---8---5 b 6---|
B |-----------------|-----------------|-----------------|-----------------|
G |-----------------|-----------------|-----------------|-----------------|
D |-----------------|-----------------|-----------------|-----------------|
A |-----------------|-----------------|-----------------|-----------------|
E |-----------------|-----------------|-----------------|-----------------|

Break

e |-2---2---2---2---|-2---2---2---2---|-3---3---3---3---|-3---3---3---3---|
B |-4---4---4---4---|-4---4---4---4---|-5---5---5---5---|-5---5---5---5---|
G |-4---4---4---4---|-4---4---4---4---|-5---5---5---5---|-5---5---5---5---|
D |-4---4---4---4---|-4---4---4---4---|-5---5---5---5---|-5---5---5---5---|
A |-2---2---2---2---|-2---2---2---2---|-3---3---3---3---|-3---3---3---3---|
E |-2---2---2---2---|-2---2---2---2---|-3---3---3---3---|-3---3---3---3---|

e |-3---------------|-2---------------|-2-------2-------|-2-------2-------|
B |-0---------------|-3---------------|-4-------4-------|-4-------4-------|
G |-0---------------|-2---------------|-4-------4-------|-4-------4-------|
D |-0---------------|-0---------------|-4-------4-------|-4-------4-------|
A |-2---------------|-----------------|-2-------2-------|-2-------2-------|
E |-3---------------|-----------------|-2-------2-------|-2-------2-------|

e |-3-------3-------|-3-------3-------|
B |-5-------5-------|-5-------5-------|
G |-5-------5-------|-5-------5-------|
D |-5-------5-------|-5-------5-------|
A |-3-------3-------|-3-------3-------|
E |-3-------3-------|-3-------3-------|

Last Chord

e |-3---------------|
B |-0---------------|
G |-0---------------|
D |-0---------------|
A |-2---------------|
E |-3---------------|

---------------------------------------------------------------------------
| Guitar 1          | Guitar 2          | Vocals                          |
---------------------------------------------------------------------------
| Intro             |                   | (No vocals)                     |
| Verse X 2         |                   | (No vocals)                     |
| Verse A X 4       |                   | (I've got a friend, her...)     |
| Verse A X 4       | Verse B X 4       | (We took a plane, through...)   |
|                   | Pre-Chorus X 2    | (Seven days in the sun. Yeah.)  |
| Chorus X 4        |                   | (She's my heaven, she's a...)   |
| Intro             |                   | (No vocals)                     |
| Verse A X 4       |                   | (She's got this friend, his...) |
| Verse A X 4       | Verse B X 4       | (We took a train, left...)      |
|                   | Pre-Chorus X 4    | (Seven days in the sun...)      |
| Chorus X 4        |                   | (She's my heaven, she's a...)   |
| Post-Chorus A X 2 | Post-Chorus B X 4 | (You really light me up...)     |
| Break             |                   | (Staring through the crowd...)  |
| Intro             |                   | (No Vocals)                     |
|                   | Verse B X 4       | (We used to take a walk on...)  |
| Chorus X 4        |                   | (She's my heaven, she's a...)   |
| Post-Chorus A X 4 | Post-Chorus B X 4 | (You really light me up...)     |
---------------------------------------------------------------------------

Have fun playing the song,
- Harry


Расскажи друзьям!




Войдите, используя Ваш аккаунт:



Забыли пароль?
Зарегистрироваться

Войти с помощью:

Привет, гитарист!

Пройди супер-курс по гитаре и порази всех своей игрой!

Забрать курс!
ВАМ ПОДАРКИ ОТ ПРОЕКТА
"ГИТАРНАЯ РЕВОЛЮЦИЯ"