Gitaristu.ru
Аккорды Табулатура Начинающим Мастер-класс Софт Видео Форум Блог
Новости Анонсы Гитары Гитаристы Статьи Аватарки Минусовки
Поиск





Популярные подборы




Настройка гитары

Новые комментарии






Главная > Аккорды > F > Feeder

Аккорды
Feeder
-
Shatter (табулатура)



Подбор прислал: gitaristu.ru
b= bend
h= hammer on
p= pull off

I'm pretty sure this tab is 100% correct. great song.

Intro

e|-------------------------------------6--------------|
b|------------------------------------8-8-6-----------|
g|-5-555-555-555-555-888-888-888-888-------8b10b8-----|    X2
d|-5-333-333-333-333-888-888-888-888------------------|
a|-3-333-333-333-333-666-666-666-666------------------|
E|----------------------------------------------------|

Verse

e|-------------------------------------6--------------|
b|------------------------------------8-8-6-----------|
g|-5-555-555-555-555-888-888-888-888-------8b10b8-----|    X3
d|-5-333-333-333-333-888-888-888-888------------------|
a|-3-333-333-333-333-666-666-666-666------------------|
E|----------------------------------------------------|

then

e|-----------------------------------|
b|-----------------------------------|
g|-5-555-555-555-555-888-888-888-888-|
d|-5-333-333-333-333-888-888-888-888-|
a|-3-333-333-333-333-666-666-666-666-|
E|-----------------------------------|

Chorus

e|--------------------------------------|
b|--------------------------------------|
g|-55555555----------88888888-----------|
d|-55555555-66666666-88888888-88888888--| X2
a|-33333333-66666666-66666666-88888888--|
E|----------44444444----------66666666--|

then

e|-------------------------------------6--------------|
b|------------------------------------8-8-6-----------|
g|-5-555-555-555-555-888-888-888-888-------8b10b8-----|    X2
d|-5-333-333-333-333-888-888-888-888------------------|
a|-3-333-333-333-333-666-666-666-666------------------|
E|----------------------------------------------------|

Verse

e|-------------------------------------6--------------|
b|------------------------------------8-8-6-----------|
g|-5-555-555-555-555-888-888-888-888-------8b10b8-----|    X3
d|-5-333-333-333-333-888-888-888-888------------------|
a|-3-333-333-333-333-666-666-666-666------------------|
E|----------------------------------------------------|

then

e|-----------------------------------|
b|-----------------------------------|
g|-5-555-555-555-555-888-888-888-888-|
d|-5-333-333-333-333-888-888-888-888-|
a|-3-333-333-333-333-666-666-666-666-|
E|-----------------------------------|

Chorus

e|--------------------------------------|
b|--------------------------------------|
g|-55555555----------88888888-----------|
d|-55555555-66666666-88888888-88888888--| X4
a|-33333333-66666666-66666666-88888888--|
E|----------44444444----------66666666--|

Bridge/solo

e|-8-6-6-------8-6-6-------5h6p5-8-6-6-------------------|
b|----8--6b8b6----8--6b8b6----------8--6b8b6-------------|
g|------8-----------8-----------------8------55-55-55-55-|
d|-------------------------------------------55-55-55-55-|
a|-------------------------------------------33-33-33-33-|
E|-------------------------------------------------------|

Chorus

e|--------------------------------------|
b|--------------------------------------|
g|-55555555----------88888888-----------|
d|-55555555-66666666-88888888-88888888--| X3
a|-33333333-66666666-66666666-88888888--|
E|----------44444444----------66666666--|

then

e|-----------------|
b|-----------------|
g|-5555555555555555|
d|-5555555555555555|  let ring last chord
a|-3333333333333333|
E|-----------------|
Расскажи друзьям!




Войдите, используя Ваш аккаунт:



Забыли пароль?
Зарегистрироваться

Войти с помощью:

Привет, гитарист!

Пройди супер-курс по гитаре и порази всех своей игрой!

Забрать курс!
ВАМ ПОДАРКИ ОТ ПРОЕКТА
"ГИТАРНАЯ РЕВОЛЮЦИЯ"