Gitaristu.ru
Аккорды Табулатура Начинающим Мастер-класс Софт Видео Форум Блог
Новости Анонсы Гитары Гитаристы Статьи Аватарки Минусовки
Поиск





Популярные подборы




Настройка гитары

Новые комментарии






Главная > Аккорды > F > Feeder

Аккорды
Feeder
-
Silent Cry bass (табулатура)



Подбор прислал: gitaristu.ru
Feeder - Silent Cry
Tabbed by Meghan (all by myself this time, Yay!)

First bar rest

Verse
G|---------------------------------|
D|-5-5-5-5-1-1-1-1-3-3-3-3-1-1-1-1-|
A|---------------------------------| x10
E|---------------------------------|

Bridge
G|---------------------------------|
D|-1-1-1-1-1-1-1-1-5-5-5-5-3-3-3-3-|
A|---------------------------------| x2
E|---------------------------------|

1st Chorus
G|---------------------------------------------------------------------------------|
D|-5-5-5-5-5-5-5-5-1-1-1-1-1-1-1-1---------------------------------------------1-1-|
A|---------------------------------1-1-1-1-1-1-1-1-3-3-3-3-3-3-3-3-3-3-3-3-3-3-----|
E|---------------------------------------------------------------------------------|

2nd Chorus
G|------------------------------------------------------------------------------------|
D|-5-5-5-5-5-5-5-5-1-1-1-1-1-1-1-1----------------------------------------------------|
A|---------------------------------1-1-1-1-1-1-1-1-3-3-3-3-3-3-3-3-3-3/10-10-10\5-5-5-|
E|------------------------------------------------------------------------------------|

Rest for 1 bar
Verse x5
Bridge x2
1st Chorus
2nd Chorus

G|-----------------------------------------------------------------|
D|---------------------------------1-1-1-1-1-1-1-1-1-1-1-1-1-------|
A|-3-3-3-3-3-3-3-3-3-3-3-3-3-1-1-1---------------------------1-1-1-|
E|-----------------------------------------------------------------|

G|-----------------------------------------------------------------|
D|-5-5-5-5-5-5-5-5-5-5-5-5-5-8-8-8-1-1-1-1-1-1-1-1-1-1-1-1-1-------|
A|-----------------------------------------------------------1-1-1-|
E|-----------------------------------------------------------------|

G|-----------------------------------------------------------------|
D|---------------------------------1-1-1-1-1-1-1-1-1-1-1-1-1-------|
A|-3-3-3-3-3-3-3-3-3-3-3-3-3-1-1-1---------------------------1-1-1-|
E|-----------------------------------------------------------------|

G|-----------------------------------------------------------------|
D|-5-5-5-5-5-5-5-5-5-5-5-5-5-8-8-8-1-1-1-1-1-1-1-1-1-1-1-1-1-5-5-5-|
A|-----------------------------------------------------------------|
E|-----------------------------------------------------------------|

1st Chorus
2nd Chorus
1st Chorus
Verse

Ending
G|----------------------------|
D|-5-5-5-5-1-1-1-1-3-3-3-3-5~-|
A|----------------------------|
E|----------------------------|
Расскажи друзьям!




Войдите, используя Ваш аккаунт:



Забыли пароль?
Зарегистрироваться

Войти с помощью:

Привет, гитарист!

Пройди супер-курс по гитаре и порази всех своей игрой!

Забрать курс!
ВАМ ПОДАРКИ ОТ ПРОЕКТА
"ГИТАРНАЯ РЕВОЛЮЦИЯ"