Gitaristu.ru
Аккорды Табулатура Начинающим Мастер-класс Софт Видео Форум Блог
Новости Анонсы Гитары Гитаристы Статьи Аватарки Минусовки
Поиск





Популярные подборы




Настройка гитары

Новые комментарии






Главная > Аккорды > F > Feeder

Аккорды
Feeder
-
Stereo World (табулатура)



Подбор прислал: gitaristu.ru
Feeder - Stereo World

Album: Swim/Polythene
Instrument: Guitar
Tuning: eBGDAD (Drop D)

Tabbed By: Dan


Intro

e||--------------------------|
B||--------------------------|
G||--------------------------|
D||--0h2-0h3-0h2-0h3-230-----| x4
A||--0h2-0h3-0h2-0h3-230-----|
D||--0h2-0h3-0h2-0h3-230-----|


e||------------------------------------------|
B||--17-17--17-17--17-17--17-17--17-17-17----|
G||------------------------------------------|
D||------------------------------------------| x4
A||------------------------------------------|
D||------------------------------------------|


Verse

e||------------|
B||------------|
G||------------|
D||--5---------| Then play intro through twice
A||--3---------|
D||--3-x32-----|

Play this twice


e||------3------------3-----------3-----------3---------|
B||--------5------------5-----------5-----------5-------|
G||----5-----5------5-----5-----5-----5-----5-----5-----|
D||------------5------------5-----------5-----------5---|
A||--3-----------3------------3-----------3-------------|
D||--3-----------3------------3-----------3-------------|

Chorus

e||---------------------------------------------------|
B||---------------------------------------------------|
G||---------------------------------------------------|
D||--7--7--7-7---9--9--9-9---5--5--5-5---5--5--5-5----|
A||--7--7--7-7---9--9--9-9---5--5--5-5---5--5--5-5----|
D||--7--7--7-7---9--9--9-9---5--5--5-5---5--5--5-5----|


Breakdown

e||----------------------------------------|
B||----------------------------------------|
G||----------------------------------------|
D||-1---1-1---1-1---3---3-3---3-3----------| x3
A||-1---1-1---1-1---3---3-3---3-3----------|
D||-1---1-1---1-1---3---3-3---3-3----------|

That's pretty much it. I'm still figuring out the lead guitar over the chorus and the 
just after the breakdown. I'll add that in when I know it.
Расскажи друзьям!




Войдите, используя Ваш аккаунт:



Забыли пароль?
Зарегистрироваться

Войти с помощью:

Привет, гитарист!

Пройди супер-курс по гитаре и порази всех своей игрой!

Забрать курс!
ВАМ ПОДАРКИ ОТ ПРОЕКТА
"ГИТАРНАЯ РЕВОЛЮЦИЯ"