Gitaristu.ru
Аккорды Табулатура Начинающим Мастер-класс Софт Видео Форум Блог
Новости Анонсы Гитары Гитаристы Статьи Аватарки Минусовки
Поиск





Популярные подборы




Настройка гитары

Новые комментарии






Главная > Аккорды > F > Feeder

Аккорды
Feeder
-
Tender bass (табулатура)



Подбор прислал: gitaristu.ru
Verse
G---------------------------------|
D---------------------------------|
A-3-3-3-3-3-3-3-3-3-3-3-3-3-3-3-3-|
E---------------------------------|

G---------------------------------|
D---------------------------------|
A---------------------------------|
E-5-5-5-5-5-5-5-5-1-1-1-1-1-1-1-1-|
repeat as necessary

Pre-Chorus
G---------------------------------|
D---------------------------------|
A---------------------------------|
E-5-5-5-5-5-5-5-5-5-5-5-5-5-5-5-5-|

G---------------------------------|
D---------------------------------|
A---------------------------------|
E-1-1-1-1-1-1-1-1-1-1-1-1-1-1-1-1-|

G---------------------------------|
D---------------------------------|
A-3-3-3-3-3-3-3-3-3-3-3-3-3-3-3-3-|
E---------------------------------|

G---------------------------------|
D---------------------------------|
A---------------------------------|
E-5-5-5-5-5-5-5-5-1-1-1-1-1-1-1-1-|

Chorus
G---------------------------------|
D---------------------------------|
A-3-3-3-3-3-3-3-3-----------------|
E-----------------3-3-3-3-3-3-3-3-|

G---------------------------------|
D---------------------------------|
A-1-1-1-1-1-1-1-1-----------------|
E-----------------1-1-1-1-1-1-1-1-|


Verse
G---------------------------------|
D---------------------------------|
A-3-3-3-3-3-3-3-3-3-3-3-3-3-3-3-3-|
E---------------------------------|

G---------------------------------|
D---------------------------------|
A---------------------------------|
E-5-5-5-5-5-5-5-5-1-1-1-1-1-1-1-1-|

Pre-Chorus
G---------------------------------|
D---------------------------------|
A---------------------------------|
E-5-5-5-5-5-5-5-5-5-5-5-5-5-5-5-5-|

G---------------------------------|
D---------------------------------|
A---------------------------------|
E-1-1-1-1-1-1-1-1-1-1-1-1-1-1-1-1-|

G---------------------------------|
D---------------------------------|
A-3-3-3-3-3-3-3-3-3-3-3-3-3-3-3-3-|
E---------------------------------|

G---------------------------------|
D---------------------------------|
A---------------------------------|
E-5-5-5-5-5-5-5-5-1-1-1-1-1-1-1-1-|


Chorus
G---------------------------------|
D---------------------------------|
A-3-3-3-3-3-3-3-3-----------------|
E-----------------3-3-3-3-3-3-3-3-|

G---------------------------------|
D---------------------------------|
A-1-1-1-1-1-1-1-1-----------------|
E-----------------1-1-1-1-1-1-1-1-|



bridge
G---------------------------------|
D---------------------------------|
A---------------------------------|
E-3-3-3-3-3-3-3-3-3-3-3-3-3-3-3-3-|

G---------------------------------|
D---------------------------------|
A---------------------------------|
E-1-1-1-1-1-1-1-1-1-1-1-1-1-1-1-1-|

Final Pre-Chorus
Pre-Chorus
G---------------------------------|
D---------------------------------|
A---------------------------------|
E-5-5-5-5-5-5-5-5-5-5-5-5-5-5-5-5-|

G---------------------------------|
D---------------------------------|
A---------------------------------|
E-1-1-1-1-1-1-1-1-1-1-1-1-1-1-1-1-|

G---------------------------------|
D---------------------------------|
A-3-3-3-3-3-3-3-3-3-3-3-3-3-3-3-3-|
E---------------------------------|

G---------------------------------|
D---------------------------------|
A---------------------------------|
E-5-5-5-5-5-5-5-5-1~--------------|
Расскажи друзьям!




Войдите, используя Ваш аккаунт:



Забыли пароль?
Зарегистрироваться

Войти с помощью:

Привет, гитарист!

Пройди супер-курс по гитаре и порази всех своей игрой!

Забрать курс!
ВАМ ПОДАРКИ ОТ ПРОЕКТА
"ГИТАРНАЯ РЕВОЛЮЦИЯ"