Gitaristu.ru
Аккорды Табулатура Начинающим Мастер-класс Софт Видео Форум Блог
Новости Анонсы Гитары Гитаристы Статьи Аватарки Минусовки
Поиск





Популярные подборы




Настройка гитары

Новые комментарии






Главная > Аккорды > F > Feeder

Аккорды
Feeder
-
Tinsel Town bass (табулатура)



Подбор прислал: gitaristu.ru
I love this song - so sad and beautiful, it makes me want to cry if i listen to it when 
sad. Anyhoo, heres the bass part

Verse - Played very quietly
G|--------------------------------|
D|7-7-7-7---------4-4-4-4---------|
A|--------5-5-5-5---------5-5-5-5-|
E|--------------------------------|

Occasionly it changes to
G|--------7-7-7-7-----------------|
D|7-7-7-7---------4-4-4-4---------|
A|------------------------5-5-5-5-|
E|--------------------------------|

Chorus
G|----------------------------------------------------------------|
D|--------------------------------4-4-4-4-4-4-4-4-----------------|
A|----------------5-5-5-5-5-5-5-5-----------------5-5-5-5-5-5-5-5-|
E|5-5-5-5-5-5-5-5-------------------------------------------------|

Bridge
G|----------------------------------------------------------------|
D|----------------4-4-4-4-4-4-4-4-----------------7-7-7-7-7-7-7-7-|
A|7-7-7-7-7-7-7-7-----------------5-5-5-5-5-5-5-5-----------------|
E|----------------------------------------------------------------|
Расскажи друзьям!




Войдите, используя Ваш аккаунт:



Забыли пароль?
Зарегистрироваться

Войти с помощью:

Привет, гитарист!

Пройди супер-курс по гитаре и порази всех своей игрой!

Забрать курс!
ВАМ ПОДАРКИ ОТ ПРОЕКТА
"ГИТАРНАЯ РЕВОЛЮЦИЯ"