Gitaristu.ru
Аккорды Табулатура Начинающим Мастер-класс Софт Видео Форум Блог
Новости Анонсы Гитары Гитаристы Статьи Аватарки Минусовки
Поиск





Популярные подборы




Настройка гитары

Новые комментарии






Главная > Аккорды > F > Feeder

Аккорды
Feeder
-
Tracing Lines (табулатура)



Подбор прислал: gitaristu.ru
I've been looking for a tab, for this, but can't find one, so here's my attempt at it.
my first tab, so be nice :D

Intro:
Guitar 1:
|------------------------------------------------------------|
|------------------------------------------------------------|
|5-5-5-------------------------5-5-5-------------------------|
|5-5-5-5-5-5-5-5-5-5-5-5-5-5-5-5-5-5-5-5-5-5-5-5-5-5-5-5-5-5-|
|3-3-3-5-5-5-5-5-5-5-5-5-5-5-5-3-3-3-5-5-5-5-5-5-5-5-5-5-5-5-|
|------3-3-3-3-3-3-3-3-3-3-3-3-------3-3-3-3-3-3-3-3-3-3-3-3-|

|------------------------------------------------------------|
|------------------------------------------------------------|
|5-5-5-------------------------5-5-5-------------------------|
|5-5-5-2-2-2-2-2-2-2-2-2-2-2-2-5-5-5-5-5-5-5-5-5-5-5-5-5-5-5-|  x2
|3-3-3-2-2-2-2-2-2-2-2-2-2-2-2-5-5-5-5-5-5-5-5-5-5-5-5-5-5-5-|
|------0-0-0-0-0-0-0-0-0-0-0-0-------3-3-3-3-3-3-3-3-3-3-3-3-|

Guitar 2: (only plays second time round)
|--------------------------------------|
|--------------------------------10-8--|
|-----7-9------7-9------7-9------------|  x2
|-7-9------7-9------7-9------7-9-------|
|--------------------------------------|
|--------------------------------------|

Verse 1:
Same as intro, but guitar 1 plays this at the end:
|--------|
|--------|
|--------|
|5-5-4-4-|
|5-5-4-4-|
|3-3-2-2-|

Pre-chorus:
I think Grant just plays E for this, but I've tabbed the whole riff:
|------------------------------------------------|
|------------------------------------------------|
|----------5-5-5-5-5-5-5-------------------------|
|2-2-2-2-2-5-5-5-5-5-5-5-5-5-5-5-5/9-9-5-9-9-7-7-|
|2-2-2-2-2-3-3-3-3-3-3-3-5-5-5-5-5/9-9-5-9-9-7-7-|
|0-0-0-0-0---------------3-3-3-3-3/7-7-3-7-7-5-5-|

|----------0-------------|
|----------1-------------|
|----------0--(let ring)-|
|2-2-2-2-2-2-------------|
|2-2-2-2-2-3-------------|
|0-0-0-0-0---------------|

Chorus:
Guitar 1:
|-------------------|
|-------------------|
|-----5-5--9-9--7-7-|
|5-5--5-5--9-9--7-7-|  x3
|5-5--3-3--7-7--5-5-|
|3-3----------------|

|--------------------------------------------------|
|--------------------------------------------------|
|9-9-9-9-9-9-9-9-7-7-7-7-7-7-7-7-------------------|
|9-9-9-9-9-9-9-9-7-7-7-7-7-7-7-7-5-5-5-5-5-5-5-5-5-|
|7-7-7-7-7-7-7-7-5-5-5-5-5-5-5-5-5-5-5-5-5-5-5-5-5-|
|--------------------------------3-3-3-3-3-3-3-3-3-|

Guitar 2:
|-----------------|
|-----------------|
|----7-7b9--7b9r7-|
|7-9--------------| x4
|-----------------|
|-----------------|


Pre-verse:
Same as second half of intro.

Verse 2:
Same as verse 1, but before guitar 2 comes in, it plays this note a few times:
|---|
|---|
|---|
|-5-|
|---|
|---|

Pre-Chorus

Chorus:
At the end of the chorus, guitar 1 misses out the last chord, and it goes straight into
solo (sorry i haven't figured out the guitar 1 part to this, but it sounds fairly
straightforward).

Solo:
|-----------------------|
|8-7~-------------7-x-8-|
|-----5-4~-9-8~-9-------|
|-----------------------|
|-----------------------|
|-----------------------|

|------------------------|
|8-7~--------------------|
|-----5-4~-5/9-8-9-11-12-|
|------------------------|
|------------------------|
|------------------------|

|------------------------10-|
|12-12-10-12-10-12-10-12----|
|---------------------------|
|---------------------------|
|---------------------------|
|---------------------------|

|---------------10/12-10-------|
|12-12-10-12-10----------12-10-|
|------------------------------|
|------------------------------|
|------------------------------|
|------------------------------|

|------------------------10-|
|12-12-10-12-10-12-10-12----|
|---------------------------|
|---------------------------|
|---------------------------|
|---------------------------|

|---10/12-12-12-12/14-14-14-14/15-15-|
|12----------------------------------|
|------------------------------------|
|------------------------------------|
|------------------------------------|
|------------------------------------|

Pre-verse:
Repeat second half of intro again

Repeat second half of verse 1

Pre-chorus

Chorus x2

At end of chorus, both guitars play this:
|------------------|
|------------------|
|------------------|
|5-5-5-5-5-5-5-5-5-|
|5-5-5-5-5-5-5-5-5-|
|3-3-3-3-3-3-3-3-3-|

/ = slide
b = bend
r = return
x = scratch note

Enjoy!!! :D
Расскажи друзьям!




Войдите, используя Ваш аккаунт:



Забыли пароль?
Зарегистрироваться

Войти с помощью:

Привет, гитарист!

Пройди супер-курс по гитаре и порази всех своей игрой!

Забрать курс!
ВАМ ПОДАРКИ ОТ ПРОЕКТА
"ГИТАРНАЯ РЕВОЛЮЦИЯ"