Gitaristu.ru
Аккорды Табулатура Начинающим Мастер-класс Софт Видео Форум Блог
Новости Анонсы Гитары Гитаристы Статьи Аватарки Минусовки
Поиск





Популярные подборы




Настройка гитары

Новые комментарии






Главная > Аккорды > F > Feeder

Аккорды
Feeder
-
Tumble And Fall bass (табулатура)



Подбор прислал: gitaristu.ru
Verse
G----------------------------------------------B
D-11~----11-13----------11~----11-13-----------A
A--------------13~-------------------13~-------S
E----------------------------------------------S

G----------------------------------------------B
D-11~----11-13----------13~----13-15-----------A
A--------------13~-------------------16~-------S
E----------------------------------------------

Chorus
G---------------------------------B
D---------------------------------A
A-4-4-4-4-4-4-4-4-4-4-4-4-4-4-4-4-S
E---------------------------------S

G---------------------------------B
D---------------------------------A
A---------------------------------S
E-6-6-6-6-6-6-6-6-6-6-6-6-6-6-6-6-S

G---------------------------------B
D---------------------------------A
A-6-6-6-6-6-6-6-6-6-6-6-6-6-6-6-6-S
E---------------------------------S

G---------------------------------B
D---------------------------------A
A---------------------------------S
E-9-9-9-9-9-9-9-9-9-9-9-9-9-9-9-9-S

Bridge
G---------------------------------B
D---------------------------------A
A-4-4-4-4-4-4-4-4-----------------S
E-----------------6-6-6-6-6-6-6-6-S

then...

G---------------------------------B
D---------------------------------A
A-6-6-6-6-6-6-6-6-----------------S
E-----------------6-6-6-6-6-6-6-6-S

thats it ............enjoy.........
Расскажи друзьям!




Войдите, используя Ваш аккаунт:



Забыли пароль?
Зарегистрироваться

Войти с помощью:

Привет, гитарист!

Пройди супер-курс по гитаре и порази всех своей игрой!

Забрать курс!
ВАМ ПОДАРКИ ОТ ПРОЕКТА
"ГИТАРНАЯ РЕВОЛЮЦИЯ"