Gitaristu.ru
Аккорды Табулатура Начинающим Мастер-класс Софт Видео Форум Блог
Новости Анонсы Гитары Гитаристы Статьи Аватарки Минусовки
Поиск





Популярные подборы




Настройка гитары

Новые комментарии






Главная > Аккорды > F > Feeder

Аккорды
Feeder
-
We Are The People bass (табулатура)



Подбор прислал: gitaristu.ru
We Are The People- Feeder

Intro
G|------------------------------------|------------------------------------|
D|------------------------------------|------------------------------------|
A|-555555555555555555555555555/171717-|-555555555555555555555555555/121212-|
E|------------------------------------|------------------------------------|

Verse 1
G|----------------------------------|------------------------------------|
D|-----------------7----------------|------------------------------------|
A|-5--------------------------------|-22222222222222-55------------------|
E|----------------------------------|-------------------3333333333333333-|

G|----------------------------------|------------------------------------|
D|----------------------------------|------------------------------------|
A|-5555555555555555-----------------|-22222222222222-55------------------|
E|-----------------5555555555555555-|-------------------3333333333333333-|

Pre-chorus
G|-----------------------------------------|
D|-----------------------------------------|
A|-77777777/101010101010/14141414\12121212-|
E|-----------------------------------------|

G|--------------------------------------------------------------------|
D|--------------------------------------------------------------------|
A|\1010101010101010/14141414\12121212\101010101010101010101010/121212-|
E|--------------------------------------------------------------------|
Chorus 
G|--------------------------------------------------|
D|--------------------------------------------------|
A|--------------------------------------------------|
E|-7777777-91010101010101010\333333333333/12121212--|

G|-------------------------------------------------------|
D|-------------------------------------------------------|
A|-------------------------------------5----5------------|
E|-7777777-910101010101010-12p1010\3333-3333-33/10101010-|

G|-------------------------------------------------|
D|-------------------------------------------------|
A|-------------------------------------------------|
E|-7777777-91010101010101010\333333333333/12121212-|

G|--------------------------------------------------------|
D|--------------------------------------------------------|
A|--------------------------------------------------------|
E|-7777777-910101010101010-12p1010\333333333/151515151515-|

Verse 2
G|---------------------------------------------------|
D|---------------------------------------------------|
A|-5555555555555555/12121212121212121212121212121212-|
E|---------------------------------------------------|

G|--------------------------------------------------------------------|
D|--------------------------------------------------------------------|
A|-1414141414141414141414141414-17\--10101010101010101010101010101010-|
E|--------------------------------------------------------------------|

G|-----------------------------------------------------------------------|
D|-----------------------------------------------------------------------|
A|-5---------------------------------------------------------------------|
E|------------------5555555555555555-77777777777777-10\-3333333333333333-|

G|-----------------------------------------------------------------------|
D|-----------------------------------------------------------------------|
A|-5555555555555555------------------------------------------------------|
E|------------------5555555555555555-77777777777777-10\-3333333333333333-|
Pre-chorus
G|-----------------------------------------|
D|-----------------------------------------|
A|-77777777/101010101010/14141414\12121212-|
E|-----------------------------------------|

G|--------------------------------------------------------------------|
D|--------------------------------------------------------------------|
A|\1010101010101010/14141414\12121212\101010101010101010101010/121212-|
E|--------------------------------------------------------------------|
Chorus 
G|--------------------------------------------------|
D|--------------------------------------------------|
A|--------------------------------------------------|
E|-7777777-91010101010101010\333333333333/12121212--|

G|-------------------------------------------------------|
D|-------------------------------------------------------|
A|-------------------------------------------------------|
E|-7777777-910101010101010-12p1010\333333333333/10101010-|

G|--------------------------------------------------|
D|--------------------------------------------------|
A|--------------------------------------------------|
E|-7777777-91010101010101010\333333333333/12121212--|

G|--------------------------------------------------------|
D|--------------------------------------------------------|
A|--------------------------------------------------------|
E|-7777777-910101010101010-12p1010\333333333/151515151515-|

Intro Again.
G|----------------------------------|--------------------------------------|
D|----------------------------------|--------------------------------------|
A|555555555555555555555555555/171717|5555555555555555555555555/171717171717|
E|----------------------------------|--------------------------------------|

Break
G|----------------------------------------------------|
D|----------------------------------------------------|
A|----------------------------------------------------|
E|-77777777-99999999-10101010101010101010101010101010-| 

G|-------------------------------------------------------|
D|-----------------------------------------19---17-16----|
A|-------------------/17171717171717171717------------17-|
E|-77777777-99999999-------------------------------------| 

G|----------------------------------------------------|
D|----------------------------------------------------|
A|----------------------------------------------------|
E|-77777777-99999999-10101010101010101010101010101010-| 

G|------------------------------------------------------------------|
D|------------------------------------------------------------------|
A|------------------------------------------------------------------|
E|-77777777-99999999-10~--------------------------------------------|

Outro
G|------------------------------------|-----------------------------------|
D|------------------------------------|-----------------------------------|
A|-555555555555555555555555555/171717-|-55555555555555555~----------------|
E|------------------------------------|-----------------------------------|





Расскажи друзьям!




Войдите, используя Ваш аккаунт:



Забыли пароль?
Зарегистрироваться

Войти с помощью:

Привет, гитарист!

Пройди супер-курс по гитаре и порази всех своей игрой!

Забрать курс!
ВАМ ПОДАРКИ ОТ ПРОЕКТА
"ГИТАРНАЯ РЕВОЛЮЦИЯ"