Gitaristu.ru
Аккорды Табулатура Начинающим Мастер-класс Софт Видео Форум Блог
Новости Анонсы Гитары Гитаристы Статьи Аватарки Минусовки
Поиск





Популярные подборы




Настройка гитары

Новые комментарии






Главная > Аккорды > F > Feeder

Аккорды
Feeder
-
Yesterday Went Too Soon bass (табулатура)



Подбор прислал: gitaristu.ru
Awesome band, beautiful song

Verse 1 and 2
G|-------------------------------------|
D|-------------------------------------|
A|---------------------------6~--66-6-5|
E|6~--66-6-5~--55-5-3~--33-3-----------|

Pre-Chorus
G|---------------------|
D|---------------------|
A|-----------6-6-6-66--|
E|1-1-3-33-3----------6|

Chorus
G|---------------------------------------------------------------|
D|---------------------------------------------------------------|
A|------------------------6-6-6-5-------------------------6-6-6-8|
E|6-6-6-6-5-5-5-5-3-3-3-3---------6-6-6-6-5-5-5-5-3-3-3-3--------|

G|-----------------------------------------------------------------|
D|-----------------------------------------------------------------|
A|------------------------6-6-6-5----5-6-8-8-8-10p8-6-6-6-6-6-6-6-5|
E|6-6-6-6-5-5-5-5-3-3-3-3---------6--------------------------------|

Link "I'm still missing Yesterday"
G|-----------------------------------|
D|-----------------------------------|
A|8-8-8-8-10-10-10-10-6-6-6-6-6-6-6-6|
E|-----------------------------------|

Bridge
G|-------------------------------------------------------------|
D|-------------------------------------------------------------|
A|----------------6-6-6-6-6-6-6-6-----------------6-5-3--------|
E|3-3-3-3-5-5-5-5-----------------3-3-3-3-5-5-5-5-------6-5-6-5|

G|--------------------------|
D|--------------------------|
A|----------------6~--------|
E|3-3-3-3-5-5-5-5-----------|

3rd Verse
G|----------------------------------------------------------------|
D|----------------------------------------------------------------|
A|--8-------7-------5---5-6-6-6-5---8-------7-------5---5-6~------|
E|6---6-6-5---5-5-3---3-----------6---6-6-5---5-5-3---3-----------|

Or it could be played higher, like this
I like this way more,I think its what Taka actually does on the record

G|--10-------9-------7---7-8-8-8-7---10-------9-------7---7-8~----|
D|8----8-8-7---7-7-5---5-----------8----8-8-7---7-7-5---5---------|
A|----------------------------------------------------------------|
E|----------------------------------------------------------------|

Finish with chorus x2
Расскажи друзьям!




Войдите, используя Ваш аккаунт:



Забыли пароль?
Зарегистрироваться

Войти с помощью:

Привет, гитарист!

Пройди супер-курс по гитаре и порази всех своей игрой!

Забрать курс!
ВАМ ПОДАРКИ ОТ ПРОЕКТА
"ГИТАРНАЯ РЕВОЛЮЦИЯ"