Gitaristu.ru
Аккорды Табулатура Начинающим Мастер-класс Софт Видео Форум Блог
Новости Анонсы Гитары Гитаристы Статьи Аватарки Минусовки
Поиск





Популярные подборы




Настройка гитары






Главная > Аккорды > N > Nirvana

Аккорды
Nirvana
-
About a girl-unknown (табулатура)



Подбор прислал: gitaristu.ru



Tabbed by: Malcolm
This Is The Correct SOLO For About A Girl 

Tuning: Standard Tunning e,b,g,D,A,E *= Sharp

e|------------------------------------------------
B|------------------------------------------------
G|-----------------0---2---2-/--------------------
D|--------0---2-----------------------------------
A|--2---------------------------------------------
E|--0---------------------------------------------



e|-------------------------------------
B|-----------5---------8--8---8--------
G|---4---4---4--/--7------7---7---7--- repeat 4
D|------------------------------------- times then
A|------------------------------------- back into
E|------------------------------------- chords


     C*5      G*5    F*5                     A  C
e|-------------------------------------------0--0-
B|-------------------------------------------2--1-
G|---6---6-----------------------------------2--0-
D|---6---6---6---6---4---4---4---------------2--2-
A|---4---4---6---6---4---4---4----x2---------0--3-
E|-----------4---4---2---2---2--------0--0--------

Thats How Easy This SOLO Is 

Расскажи друзьям!




Войдите, используя Ваш аккаунт:



Забыли пароль?
Зарегистрироваться

Войти с помощью:

Привет, гитарист!

Пройди супер-курс по гитаре и порази всех своей игрой!

Забрать курс!
ВАМ ПОДАРКИ ОТ ПРОЕКТА
"ГИТАРНАЯ РЕВОЛЮЦИЯ"