Gitaristu.ru
Аккорды Табулатура Начинающим Мастер-класс Софт Видео Форум Блог
Новости Анонсы Гитары Гитаристы Статьи Аватарки Минусовки
Поиск





Популярные подборы




Настройка гитары






Главная > Аккорды > N > Nirvana

Аккорды
Nirvana
-
Aero Zeppelin



Подбор прислал: gitaristu.ru
Incesticide (1992)
		Aero Zeppelin

Intro/Verse:	Riff A
		1|------0-0-0---------------0-0-0-------0
		2|------------3---3---------------3---3--
		3|--------------3---3---------------3----
		4|-2-2------------------2-2--------------
		5|-2-2------------------2-2--------------
		6|-0-0------------------0-0--------------
 		play that 2x as an intro
 		during verse, play 3x, then play
		1|-----0-0-0---------------0-0-----------0-0----
		2|-----------3---3-------------3-------------3--
		3|-------------3---3-------------3-------------3
		4|-2-2-----------------2-2-----------2-2--------
		5|-2-2-----------------2-2-----------2-2--------
		6|-0-0-----------------0-0-----------0-0--------
 		on repeat, play the second half on the above riff 2x

Bridge:		Riff B
		4|-2-2---------------2-2--------------
		5|-2-2--2-2-2-2/5--5-2-2-2-2-2-1---1--
		6|-0-0---------------0-0---------3---3
 		play that 4x as a brigde, then play

 		Riff C
		3|-4-4-4-4-4-4/7--7--7--7-9------------------------
		4|-4-4-4-4-4-4/7--7--7--7-9------------------------
		5|-2-2-2-2-2-2/5--5--5--5-7-4-----3-----2-----1----
		6|----------------------------4-4---3-3---2-2---1-1
 		play that 3x, then play
		3|-4-4-4-4-4-4/7--7--7--7-9------------------------
		4|-4-4-4-4-4-4/7--7--7--7-9------------------------
		5|-2-2-2-2-2-2/5--5--5--5-7-4-----3-----2-----1----
		6|----------------------------4-4---3-3---2-2---1-1

		5|-4-----3-----2-----1-----4-----3-----2------1----
		6|---4-4---3-3---2-2---1-1---4-4---3-3---2-2----1-1

		5|-4-----3-----2-----1----
		6|---4-4---3-3---2-2---1-1
 		then play
		4|-2-2-------------
		5|-2-2-------------
		6|-0-0-5--5-4-0-5^4
 		play that 4x
 		that was all Riff C in case you were wondering :)

Verse:		E5 B5 E5 G5
Chorus:		Riff C
Solo:		look elsewhere
After solo:	Riff B 4x, Riff C, then Riff A 2x

 		TABULATURE DEFINITION
 		What all the little symbols in the tab mean...
 		)   = Bend
 		/   = slide
 		~~  = vibrato
 		^   = hammeron/pulloff
 		PM  = Palm mute
 		*   = uncontrolled feedback
 		xx = pick scrape
 		NH  = Natural Harmonic
 		+   = Tremelo Pick
 		)   = Unison Bend
 		)
 		@@@@@=Smash Guitar
Расскажи друзьям!




Войдите, используя Ваш аккаунт:



Забыли пароль?
Зарегистрироваться

Войти с помощью:

Привет, гитарист!

Пройди супер-курс по гитаре и порази всех своей игрой!

Забрать курс!
ВАМ ПОДАРКИ ОТ ПРОЕКТА
"ГИТАРНАЯ РЕВОЛЮЦИЯ"