Gitaristu.ru
Аккорды Табулатура Начинающим Мастер-класс Софт Видео Форум Блог
Новости Анонсы Гитары Гитаристы Статьи Аватарки Минусовки
Поиск





Популярные подборы




Настройка гитары






Главная > Аккорды > N > Nirvana

Аккорды
Nirvana
-
All apologies ny (табулатура)



Подбор прислал: gitaristu.ru



From: Matt Flaherty 
Subject: n/nirvana/all_apologies_ny.tab
Date: Sun, 30 Jun 2002 21:47:57 -0500

Artist: NIRVANA
Album: Unplugged at NY
submitted by: ferdie@philcom.com
edited by: weezer0254@msn.com
Intro/ Riff 1 x2
E ----------------------|----------------------|----------------------|
B ----------------------|----------------------|----------------------|
G ----------------------|----------------------|----------------------|
D ----------------------|----11-11--9p8-------|----------------------|  =20
A -8-8h9-9--11-11-9p8-|----------------------|-8-8h9-9--11-11--9p8-| =20
E ----------------------|----------------------|----------------------|
   than this once
E ---------------------|
B ---------------------|
G --10-10--9-----------|
D -----------11--------|
A ---------------------|
E ---------------------|
 Verse 
E ----------------------|----------------------|
B ----------------------|----------------------|
G ----------------------|----------------------| x6
D ----------------------|----11-11--9p8--------|
A -8-8h9-9--11-11-9p8---|----------------------|
E ----------------------|----------------------|
What else do I be;                       all apologies

Chorus
F
In ....
F                          G  
In the sun, in the sun I'm married
G
Burried 

Verse (Riff 1) then Riff 2 x5

Chorus
then
G       G
Married, Burried (yah, yah, yah, yeah)

Ending
Riff 1 + Riff2 x7
All alone is all we are


Расскажи друзьям!




Войдите, используя Ваш аккаунт:



Забыли пароль?
Зарегистрироваться

Войти с помощью:

Привет, гитарист!

Пройди супер-курс по гитаре и порази всех своей игрой!

Забрать курс!
ВАМ ПОДАРКИ ОТ ПРОЕКТА
"ГИТАРНАЯ РЕВОЛЮЦИЯ"