Gitaristu.ru
Аккорды Табулатура Начинающим Мастер-класс Софт Видео Форум Блог
Новости Анонсы Гитары Гитаристы Статьи Аватарки Минусовки
Поиск





Популярные подборы




Настройка гитары






Главная > Аккорды > N > Nirvana

Аккорды
Nirvana
-
Aneurysm1 (табулатура)



Подбор прислал: gitaristu.ru


-------------------------------------------------------------------------------
			     Aneurysm (Live)- Nirvana
-------------------------------------------------------------------------------
Tabbed by: Jess
Email: Nirvana Fluid@aol.com

Tuning: standard

Note: Timing may not be exact, so listen to it you lazy bastard. This is also a fairly easy song. This is my first tab so fuck off
e|----------------------------------------------------|
B|----------------------------------------------------|
G|---------------------4--4--4--4--3--3--3--0-0-0-0---| X2
D|-------4------4--4---4--4--4--4--3--3--3--0-0-0-0---|
A|-------4------4--4---2--2--2--2--1--1--1--0-0-0-0---|
E|-------2------2--2----------------------------------|
  These should be 8th notes


e|--------------------------------------------------------------------|
B|--------------------------------------------------------------------|
G|-------0-0-0-0-0-0-1-1-1-1-1-1-2-2-2-2-2-2-3-3-3-3-3-3-4-4-4-4-4-4-5|
D|--------------------------------------------------------------------|
A|--------------------------------------------------------------------|
E|--------------------------------------------------------------------|
  Once again, I am not sure if this is the correct amount of notes, I         may me off by a couple These should be 16th notes


e|--------------------------------------------------------------------|
B|--------------------------------------------------------------------|
G|--5-5-5-5-5-6-6-6-6-6-6-7-7-7-7-7-7-8-8-8-8-8-8---------------------|
D|--------------------------------------------------------------------|
A|--------------------------------------------------------------------|
E|--------------------------------------------------------------------|



e|-----------------------------------------------------------|
B|-----------------------------------------------------------|
G|-----------4-4-4-4-3-3-3-3-0-0-0-0-------------------------|
D|--4---4-4--4-4-4-4-3-3-3-3-0-0-0-0-------------------------|   X8
A|--4---4-4--2-2-2-2-1-1-1-1-0-0-0-0-------------------------|
E|--2---2-2--------------------------------------------------|
   These should be 8th notes


e|--------------------------------------------------------------------|
B|--------------------------------------------------------------------|
G|--3-3-3-3-3-3-4-4-4-4-4-4-5-5-5-5-5-5-6-6-6-6-6-6-7-7-7-7-7-7-8-8-8-|
D|--------------------------------------------------------------------|
A|--------------------------------------------------------------------|
E|--------------------------------------------------------------------|



e|--------------------------------------------------------------------|
B|--------------------------------------------------------------------|
G|--8-8-8-9-9-9-9-9-9-10^---------------------------------------------|
D|--------------------------------------------------------------------|
A|--------------------------------------------------------------------|
E|--------------------------------------------------------------------|
                     (not sure if it sounds better distorted or just bended)


e|---------------------------------------------------|
B|---------------------------------------------------|
G|---------------------------------------------------| X3
D|---------------------------------------------------|
A|---------------------------------------------------|
E|--8---8---8-8-8---8---8--8---8-8-8---8-------------|
  These should be 8th notes

e|---------------------------------------------------|
B|---------------------------------------------------|
G|---------------------------------------------------| 
D|---------------------------------------------------|
A|---------------------------------------------------|
E|--8-8-8-8-8-8-8-8-8-8-8-8--------------------------|
   These are 8th notes


e|------------------------------------------------------|
B|---3---3-3-3-3-3-3-3-3--------------------------------|
G|---2---2-2-2-2-2-2-2-2--------------------------------|
D|---0---0-0-0-0-0-0-0-0--------------------------------|
A|------------------------------------------------------|
E|------------------------------------------------------|
   These should be 16th notes


e|-------------------------------------------------------------------|
B|-------------------------------------------------------------------|
G|---3-3-3-3-3-3-3-3-4-4-4-4-4-4-4-4-5-5-5-5-5-5-5-5-6-6-6-6-6-6-6-6-|
D|-------------------------------------------------------------------|
A|-------------------------------------------------------------------|
E|-------------------------------------------------------------------|


e|-------------------------------------------------------------------|
B|-------------------------------------------------------------------|
G|---7-7-7-7-7-7-7-7-8-8-8-8-8-8-8-8-9-9-9-9-9-9-9-9-10-10-10-10-10--|
D|-------------------------------------------------------------------|
A|-------------------------------------------------------------------|
E|-------------------------------------------------------------------|






e|--------------------------------------------------------------------|
B|--------------------------------------------------------------------|
G|---10-10-10-11-11-11-11-11-11-11-11-12-12-12-12-12-12-12-12-13-13-13|
D|--------------------------------------------------------------------|
A|--------------------------------------------------------------------|
E|--------------------------------------------------------------------|



e|--------------------------------------------------------------------|
B|--------------------------------------------------------------------|
G|---13-13-13-13-13-14-14-14-14-14-14-14-14---------------------------|
D|--------------------------------------------------------------------|
A|--------------------------------------------------------------------|
E|--------------------------------------------------------------------|
   Wow, is that long or what All of these are 16th notes


And that’s basically it, he repeats these parts several times, but it’s a long song, and its really easy to figure out what he does, so find it out on yourself. 

| /  slide up
|   slide down
| h  hammer-on
| p  pull-off
| ~  vibrato
| +  harmonic
| x  Mute note
===============================================================================


Расскажи друзьям!




Войдите, используя Ваш аккаунт:



Забыли пароль?
Зарегистрироваться

Войти с помощью:

Привет, гитарист!

Пройди супер-курс по гитаре и порази всех своей игрой!

Забрать курс!
ВАМ ПОДАРКИ ОТ ПРОЕКТА
"ГИТАРНАЯ РЕВОЛЮЦИЯ"